Theme Music

The Can Can Tabs



More from Theme Music

Theme Music Tabs



this is a good song to impress your mates with

E--------------------------------------------------------------------------------------
B--------------------------------------------------------------------------------------
G--------------------------------------------------------------------------------------
D--------------------2--2--2--4-----------------------------7--6--4--2--0--------------
A--0--0--2--5--4--2--------------4--5--2--2--2--5--4--2--0-----------------5--4--2--0--
E--------------------------------------------------------------------------------------

E--------------------------------------------------------------------------------------
B--------------------------------------------------------------------------------------
G--------------------------------------------------------------------------------------
D--------------------2--2--2--4-----------------------------2--------------------------
A--0--2--5--4--2-----------------4--5--2--2--2--5--4--2--0-----2--4--0-----------------
E--------------------------------------------------------------------------------------


Get this song at amazon.com      Ebay     Ringtones Ringtones  


Learn to play: Songwriting, Piano, Harmonica, Guitar

Related Theme Music Tabs

Blues Shuffle Theme tabs
Mission Impossible Theme tabs
Charlie Brown Song tabs
Brilliant Little Surfing Riff tabs
Frosty The Snowman tabs
Sailors Hornpipe tabs
Megaman Theme tabs
Team Fresh Theme tabs
Extended Neoclassical Arpeggio tabs
Rocky Sountrack tabs
Captain Pugwash Theme tabs
Fur Elise tabs
Popeye Theme tabs
The Andy Griffin Theme Song tabs
The Can Can tabs
Doom 2 Theme tabs
Men Behaving Badly tabs
Harry Potter Theme Song tabs
Harry Potter Theme tabs
Harry Bo tabs


Guitar Tabs









All tabs are property and copyright of their owners. All tabs provided for educational purposes only. Privacy Policy, DMCA