Theme Music

Star Spangled Banner Tabs



More from Theme Music

Theme Music Tabs



E|-----1-5-3-1--------5-3-1-0-0-1-1-------|
B|1---1--------0-1-1-1-------3------1-----|
G|-2-2--------2-----------------------2---|
D|--3-----------------------------------3-|
A|----------------------------------------|
E|----------------------------------------|
(Play Twice)


E|5-5-5-6-8-8-6-5-3-3-5-6-6-5-3-1-0-------|
B|----------------------------------------|
G|----------------------------------------|
D|----------------------------------------|
A|----------------------------------------|
E|----------------------------------------|


E|-0-1-1---5-5-5-6-8-8-6-5-3-6-6--6--5-3-1-0-0-1-1------|
B|3-----1-----------------------------------3--------0-3|
G|-------2-----------------------------------------2----|
D|--------3---------------------------------------------|
A|------------------------------------------------------|
E|------------------------------------------------------|

E|---1-1-1-0---3-5-6-6-5-3-1-1-0------|
B|1-1-------3-3-----------------------|
G|------------------------------------|
D|------------------------------------|
A|------------------------------------|
E|------------------------------------|


E|---1--3---5--6--8---8---1---3--5-6-3-1--------|
B|1-1------------------------------------1------|
G|-----------------------------------------2----|
D|-------------------------------------------3--|
A|----------------------------------------------|
E|----------------------------------------------|


Get this song at amazon.com      Ebay     Ringtones Ringtones  


Learn to play: Songwriting, Piano, Harmonica, Guitar

Related Theme Music Tabs

Cialis Comercail tabs
Mxc Theme Song tabs
Power Rangers Riff tabs
Where Is Thumbkin tabs
Alton Towers Theme tabs
Popeye The Sailor Man tabs
Awsome Blues Song tabs
Auld Lang Syne tabs
Exorcist Theme tabs
Row Your Boat tabs
Good Picking Song For Beginers tabs
Greensleves tabs
Charmed Theme tabs
Bell Chime tabs
Babar - Retaxous Chant tabs
Twilight Zone tabs
Blues Song Ender tabs
O Canada tabs
Halloween Movie Theme tabs
Metal Gear Solid Theme tabs


Guitar Tabs









All tabs are property and copyright of their owners. All tabs provided for educational purposes only. Privacy Policy, DMCA