Theme Music

Somewhere Over The Rainbow Tabs



More from Theme Music

Theme Music Tabs

tabs-database.com[http://www.tabs-database.com.com/]
Finger Picking, This is good to impress your parents for some reason or another.



|----3-2---0-2-3---0------------------------------------------|

|--------3------------3----1--0-----0-1--2----0-2--0----------|

|-0--------------0--------------0-2------0--4---------0-------|

|------------------------2------------------------------------|

|------2-----------------3------------------------------------|

|-3--------------3----3-------3-----------------------3-------|





|---------------------------------------0-0--2/3-------------|

|--3-0-3-0-3-0-3-0-3---1-3-1-3-1-3-1-3-----------------------|

|------------------------------------------------------------|

|------------------------------------------------------------|

|----------------------0~~~~~~~~~~~~~~-----------------------|

|----3~~~~~~~~~~~~~~--------------------3-3--=---------------|



|----3-2---0-2-3---0------------------------------------------|

|--------3------------3----1--0-----0-1--2----0-2--0----------|

|-0--------------0--------------0-2------0--4---------0-------|

|------------------------2------------------------------------|

|------2-----------------3------------------------------------|

|-3--------------3----3-------3-----------------------3-------|



~let ring

/slide
Added by tabs-database.com and our distinguished partners
Get this song at amazon.com      Ebay     Ringtones Ringtones  


Learn to play: Songwriting, Piano, Harmonica, Guitar

Related Theme Music Tabs

Hedwigs Theme tabs
Blues Riff tabs
Ned's Declassified School Survival Guide Theme tabs
Black Books Theme tabs
Freddy Vs Jason tabs
Opening Theme To Terminator tabs
Mary Had Seven Lambs tabs
Yankie Doodle tabs
Elmo Song tabs
Hun Cunz Buz tabs
Back To The Future tabs
Silent Night tabs
Barney Theme tabs
Boosters Tower tabs
Green Sleeves tabs
Beavis And Butthead tabs
Wolf Whistle tabs
Misc Riff tabs
Dueling Banjo tabs
Drunk Sailor tabs


Guitar Tabs









All tabs are property and copyright of their owners. All tabs provided for educational purposes only. Privacy Policy, DMCA