Theme Music

Sharpe Theme Tabs



More from Theme Music

Theme Music Tabs

tabs-database.com[http://www.tabs-database.com.com/]
e---------------------------------------------------------------------------------|

B-----------------------------------------------------------------------------

g--------------------------------------------------------------------------------|

D---2-------5~~-------10--10-12-15-17-15-17-19-17-15~~-----------------------------|

A---2-------------------12---------------------------------------------------------|

E---0------------------------------------------------------------------------------|





e----------------------------------------------------------------------------------|

B----------------------------------------------------------------------------------|

G-----------10---------------------------------------------------------------------|

D-----10--12----17-19-17-15-17~~--17h19~-17-15----17-15------------12-15-17-15-14~~------|

A-------12-----------------------------17------17-15-12-15-----------------------|

E----------------------------------------------------------------------------------|
Added by tabs-database.com and our distinguished partners
Get this song at amazon.com      Ebay     Ringtones Ringtones  


Learn to play: Songwriting, Piano, Harmonica, Guitar

Related Theme Music Tabs

Frere Jacques tabs
Duke Nukem Theme tabs
Holloween Theme tabs
Blues Riff tabs
Chinese Theme Song tabs
Sharpe Theme tabs
London Bridge Is Falling Down tabs
Olympic Fanfare tabs
Buffy Acoustic Theme tabs
Disapointment Thingy tabs
Dsb Harry tabs
Nokia Tune tabs
Magic Roundabout Theme tabs
Away In A Manger tabs
007 Theme tabs
Inu-yasha (outro - Deep Forest) tabs
Snake Charming Song tabs
Mario - Up The Flag tabs
Phoenix Nights tabs
I Bet You Will tabs


Guitar Tabs









All tabs are property and copyright of their owners. All tabs provided for educational purposes only. Privacy Policy, DMCA