Theme Music

Seseme Street Tabs



More from Theme Music

Theme Music Tabs

tabs-database.com[http://www.tabs-database.com.com/]
e |----------------------|

B |----------------------|

G |-5-2-----0-2-5-2------|

D |-----3-3---------3----|

A |----------------------|

E |----------------------|



e |----------------------|

B |----------------------|

G |---0-2-4-5-7-5-7-8-7--|

D |-3--------------------|

A |----------------------|

E |----------------------|



e |----------------------|

B |----------------------|

G |-5-2-0-0-2-3-2-0-1-1--|

D |----------------------|

A |----------------------|

E |----------------------|
Added by tabs-database.com and our distinguished partners
Get this song at amazon.com      Ebay     Ringtones Ringtones  


Learn to play: Songwriting, Piano, Harmonica, Guitar

Related Theme Music Tabs

Mary Had Seven Lambs tabs
Flinstones Theme tabs
Auld Lang Syne tabs
Sesame Street tabs
Happy Birthday With A Rock Twist tabs
Chinese Theme Song tabs
Egyptian Riff tabs
Beauty And The Beast tabs
O Canada tabs
The Entertainer tabs
Black Books Theme tabs
Finger Tap Practice tabs
Ode To Joy tabs
Eurotrip tabs
Rocky Theme tabs
Oompa Loompa Song tabs
Cool Depressing Riff tabs
Twinkel Twinkle tabs
Peter Gunn Theme tabs
Extreme Happy Birthday tabs


Guitar Tabs









All tabs are property and copyright of their owners. All tabs provided for educational purposes only. Privacy Policy, DMCA