Theme Music

Sailors Hornpipe Tabs



More from Theme Music

Theme Music Tabs

tabs-database.com[http://www.tabs-database.com.com/]
Just work out how it should sound by listening to the first few notes, you will almost certainly know the tune. It’s a great finger exercise too.





E |--4-2-------------------------------------4---------------------------------------------7--|

B |--------5------------------------5-4-5---------7-5-7--------------7-5-4----------4---7-----|

G |-------------------4---------4----------------------------------------------4--------------|

D |------------2-2------7--6----------------------------------4-4-----------------------------|

A |-------------------------------------------------------------------------------------------|

E |-------------------------------------------------------------------------------------------|





E |--9--11-12-11-9--------------------------------------------------------------------------|

B |---------------------12--10-9--10-9------------------------------------------------9--7--|

G |---------------------------------------------11-9-11-9-8-------------9-8-11-9------------|

D |-------------------------------------------------------------11---9----------------------|

A |-----------------------------------------------------------------------------------------|

E |-----------------------------------------------------------------------------------------|



E |-----------------|

B |--10-9-----------|

G |-----------9--9--|

D |-----------------|

A |-----------------|

E |-----------------|
Added by tabs-database.com and our distinguished partners
Get this song at amazon.com      Ebay     Ringtones Ringtones  


Learn to play: Songwriting, Piano, Harmonica, Guitar

Related Theme Music Tabs

Angel Theme tabs
King Of The Hill Theme tabs
Meow Mix Theme tabs
Earthbound Character Naming tabs
Exorcist Theme tabs
Sky News tabs
Boogie tabs
Yankee Doodle tabs
Final Fantasy 4 Edwards Theme tabs
Alton Towers tabs
Fifal Goes West Theme Song tabs
Hun Cunz Buz tabs
Conan The Barbarian tabs
Beauty And The Beast tabs
Sonic The Hedgehog tabs
Ode To Joy(whole Song) tabs
Shrek tabs
Mcdonalds Theme Song tabs
Eastenders Theme tabs
Olympic Fanfare tabs


Guitar Tabs









All tabs are property and copyright of their owners. All tabs provided for educational purposes only. Privacy Policy, DMCA