Theme Music

Rocky Sountrack Tabs



More from Theme Music

Theme Music Tabs

tabs-database.com[http://www.tabs-database.com.com/]


#----------------------------------PLEASE NOTE---------------------------------#

#This file is the author's own work and represents their interpretation of the #

#song. You may only use this file for private study, scholarship, or research. #

#------------------------------------------------------------------------------#



WAR (THEME FROM ROCKY IV)

As recorded by Movie Theme

(From the 1985 Album THE ROCKY STORY)





Transcribed by Richard Baines



Words by N/A Music by Vince DiCola, Bill Conti







Ab/Eb

x x 13 13 13 11 A/E

x x 14 14 14 12 B/F#

x x 16 16 16 14 B

x x x 16 16 14

G#sus4

x x x 13 14 16 A

x x x 14 14 12 Eb/G

x 22 20 20 20 18





Gtr I (E A D G B E) - 'Tinkly Bit at Beginning'

Gtr II (C# A D G B E) - 'Lead brass part'

Gtr III (E A D G B E) - 'Bright Piano'

Gtr IV (E A D G B E) - 'Tremelo Strings'

Gtr V (E A D G B E) - 'Kalimba'

Gtr VI (E A D G B E) - 'Tubular Bells'





Q=102

4/4

Gtr I

S S S S S S S S S S S S S S S S S S S S S S S S S S S S S S S S

|-----8-------8-------8-------8---|-----8-------8-------8-------8---|

|---8---8---8---8---8---8---8---8-|---8---8---8---8---8---8---8---8-|

|-5-------5-------5-------5-------|-5-------5-------5-------5-------|

|---------------------------------|---------------------------------|

|---------------------------------|---------------------------------|

|---------------------------------|---------------------------------|

|

| Gtr VI

| W H Q E E

|-8-------------------------------|-----------------------------8---|

|---------------------------------|---------------------------------|

|---------------------------------|---------------------------------|

|---------------------------------|---------------------------------|

|---------------------------------|---------------------------------|

|---------------------------------|---------------------------------|





S S S S S S S S S S S S S S S S S S S S S S S S S S S S S S S S

|-------8-------8---------8-------8---|-----8-------8-------8-------8-----|

|-----8---8---8---8-----8---8---8---8-|---8---8---8---8---8---8---8---8---|

|--5--------5--------5--------5-------|-5-------5-------5-------5---------|

|-------------------------------------|-----------------------------------|

|-------------------------------------|-----------------------------------|

|-------------------------------------|-----------------------------------|

|

| +H +Q Q W

|-(8)---------------(8)---------------|-----------------------------------|

|-------------------------------------|-----------------------------------|

|-------------------------------------|-----------------------------------|

|-------------------------------------|-----------------------------------|

|-------------------------------------|-----------------------------------|

|-------------------------------------|-----------------------------------|





S S S S S S S S S S S S S S S S S S S S S S S S S S S S S S S S

|-------8------------8--------8----------8---|--------8-------8----------8--------8----|

|-----8----8------8----8----8---8-----8----8-|------8---8---8---8------8---8---8-----8-|

|--5-----------5----------5--------5---------|---5--------5---------5--------5---------|

|--------------------------------------------|-----------------------------------------|

|--------------------------------------------|-----------------------------------------|

|--------------------------------------------|-----------------------------------------|

|

| Gtrs II, IV

| E. S +E E Q S S E +H +Q E S S

|-20------15-(15)---18---16-------15-13-15---|-(15)---------------(15)-----------------|

|--------------------------------------------|-----------------------------------13-15-|

|--------------------------------------------|-----------------------------------------|

|--------------------------------------------|-----------------------------------------|

|--------------------------------------------|-----------------------------------------|

|--------------------------------------------|-----------------------------------------|





S S S S S S S S S S S S S S S S S S S S S S S S S S S S S S S S

|-------8-----------8--------8-------8---|--------8-------8-------8-------8------|

|-----8----8-----8----8----8---8---8---8-|------8---8---8---8---8---8---8---8----|

|--5----------5----------5-------5-------|---5--------5-------5-------5----------|

|----------------------------------------|---------------------------------------|

|----------------------------------------|---------------------------------------|

|----------------------------------------|---------------------------------------|

|

| E. S S S E H +H H

|----------------------------------------|---------------------------------------|

|-16------16-15-13-11---13---------------|-(13)----------------------------------|

|----------------------------------------|---------------------------------------|

|----------------------------------------|---------------------------------------|

|----------------------------------------|---------------------------------------|

|----------------------------------------|---------------------------------------|





S S S S S S S S S S S S S S S S S S S S S S S S S S S S S S S S

|-----8-------8-------8-------8---|-------8------------8--------8----------8---|

|---8---8---8---8---8---8---8---8-|-----8----8------8----8----8---8-----8----8-|

|-5-------5-------5-------5-------|--5-----------5----------5--------5---------|

|---------------------------------|--------------------------------------------|

|---------------------------------|--------------------------------------------|

|---------------------------------|--------------------------------------------|

|

| W E. S +E E Q S S E

|---------------------------------|-20------15-(15)---18---16-------15-13-15---|

|---------------------------------|--------------------------------------------|

|---------------------------------|--------------------------------------------|

|---------------------------------|--------------------------------------------|

|---------------------------------|--------------------------------------------|

|---------------------------------|--------------------------------------------|





S S S S S S S S S S S S S S S S S S S S S S S S S S S S S S S S

|--------8-------8----------8--------8----|-------8-----------8--------8-------8------|

|------8---8---8---8------8---8---8-----8-|-----8----8-----8----8----8---8---8---8----|

|---5--------5---------5--------5---------|--5----------5----------5-------5----------|

|-----------------------------------------|-------------------------------------------|

|-----------------------------------------|-------------------------------------------|

|-----------------------------------------|-------------------------------------------|

|

| +H +Q E S S E. S S S E H

|-(15)---------------(15)-----------------|-------------------------------------------|

|-----------------------------------13-15-|-16------16-15-13-11---13------------------|

|-----------------------------------------|-------------------------------------------|

|-----------------------------------------|-------------------------------------------|

|-----------------------------------------|-------------------------------------------|

|-----------------------------------------|-------------------------------------------|





S S S S S S S S S S S S S S S S S S S S S S S S S S S S S S S S

|--------8-------8-------8-------8---|-----8--------8----------8-----------8---|

|------8---8---8---8---8---8---8---8-|---8---8---8-----8-----8----8-----8----8-|

|---5--------5-------5-------5-------|-5-------5----------5----------5---------|

|------------------------------------|-----------------------------------------|

|------------------------------------|-----------------------------------------|

|------------------------------------|-----------------------------------------|

|

| +H H Q E S S E. S S S E

|------------------------------------|-------------20-22-23------23-22-20-18---|

|-(13)-------------------------------|-------------13-15-16------16-15-13-11---|

|------------------------------------|-----------------------------------------|

|------------------------------------|-----------------------------------------|

|------------------------------------|-----------------------------------------|

|------------------------------------|-----------------------------------------|





S S S S S S S S S S S S S S S S S S S S S S S S S S S S S S S S

|-------8---------8----------8-------8---|-----8--------8---------8--------8-------|

|-----8---8---8-------8----8---8---8---8-|---8---8---8----8-----8---8---8-----8----|

|--5--------5------------5-------5-------|-5-------5---------5--------5------------|

|----------------------------------------|-----------------------------------------|

|----------------------------------------|-----------------------------------------|

|----------------------------------------|-----------------------------------------|

|

| Q. S S H Q E E Q. S S

|-22-------------15--13-15---------------|-------------18---13---------------------|

|-15------------(15)-15------------------|--------------------------------16-15----|

|----------------------------------------|-----------------------------------------|

|----------------------------------------|-----------------------------------------|

|----------------------------------------|-----------------------------------------|

|----------------------------------------|-----------------------------------------|





Gtr VI

S S S S S S S S S S S S S S S S W W E E Q H

|------8--------8----------8-------8---|-----------|-------------|-5-----------|

|----8---8----8---8------8---8---8---8-|-----------|-------------|-------------|

|--5--------5---------5--------5-------|-----------|-------------|-------------|

|--------------------------------------|-----------|-------------|-------------|

|--------------------------------------|-----------|-------------|-------------|

|--------------------------------------|-----------|-------------|-------------|

|

| Gtr II

| Q Q +Q Q W +W W

|--------------------------------------|-----------|-------------|-------------|

|-13-----------------------------------|-----------|-------------|-------------|

|--8-------10-------(10)-------8-------|-10--------|-(10)--------|-------------|

|--------------------------------------|-----------|-------------|-------------|

|--------------------------------------|-----------|-------------|-------------|

|--------------------------------------|-----------|-------------|-------------|

W





Gtr II

W W W W

|----------|-----------------------------|-----------------------------|------|

|----------|-----------------------------|-----------------------------|------|

|----------|-----------------------------|-----------------------------|-5----|

|----------|-----------------------------|-----------------------------|------|

|----------|-----------------------------|-----------------------------|------|

|----------|-----------------------------|-----------------------------|------|

|

| Gtr III

| W E. S +E E Q S S E +E. T T E. T T E. T T Q W

|----------|-17--12-(12)-15-13--12-10-12-|-(12)-11-10-8--7-6-5--4-3-2--|-1----|

|----------|-----------------------------|------11-10-9--7-6-5--4-3-2--|------|

|----------|----------------10--------11-|-(11)------------------------|-2----|

|----------|-----------------------------|-----------------------------|------|

|----------|-----------------------------|-----------------------------|------|

|----------|-----------------------------|-----------------------------|------|

|

| Gtr IV

| W W W W

|----------|-----------------------------|-----------------------------|------|

|----------|-----------------------------|-----------------------------|-6----|

|----------|-----------------------------|-----------------------------|------|

|----------|-----------------------------|-----------------------------|------|

|----------|-----------------------------|-----------------------------|------|

|----------|-----------------------------|-----------------------------|------|





W W W

|----------|-----------|----------|

|----------|--6--------|-8--------|

|-7--------|--5--------|-7--------|

|----------|-----------|-9--------|

|----------|-----------|----------|

|----------|-----------|----------|

|

| Gtr III

| W W W

|-3--------|--3--------|-3--------|

|----------|-----------|----------|

|----------|-----------|----------|

|----------|-----------|----------|

|----------|-----------|----------|

|----------|-----------|----------|

|

| Gtr IV

| W W W

|----------|-----------|-7--------|

|-8--------|-10--------|-8--------|

|----------|-----------|----------|

|----------|-----------|----------|

|----------|-----------|----------|

|----------|-----------|----------|





W

|------------------------------------------------------|

|------------------------------------------------------|

|------------------------------------------------------|

|------------------------------------------------------|

|------------------------------------------------------|

|------------------------------------------------------|

|

| W

|------------------------------------------------------|

|------------------------------------------------------|

|------------------------------------------------------|

|------------------------------------------------------|

|------------------------------------------------------|

|------------------------------------------------------|

|

| S S S S +S S S S S S S S +S S S S

|------------------------------------------------------|

|----------10-(10)-------------------10-(10)-----------|

|-------10---------10-------------10---------10--------|

|----14---------------14----14-14---------------14-----|

|-12---------------------12------------------------12--|

|------------------------------------------------------|





Gtr IV

S S S S +S S S S S S S S +S S S S S S S S +S S S S S S S S +S S S S

|-----------------------------------------------------|-----------------------------------------------------|

|----------10-(10)-------------------10-(10)----------|----------10-(10)-------------------10-(10)----------|

|-------10---------10-------------10---------10-------|-------10---------10-------------10---------10-------|

|----14---------------14----14-14---------------14----|----14---------------14----14-14---------------14----|

|-12---------------------12------------------------12-|-12---------------------12------------------------12-|

|-----------------------------------------------------|-----------------------------------------------------|

S S S S +S S S S S S S S +S S S S





Gtr II

S S S S +S S S S S S S S S S S S E. S +E E Q S S E

|---------------------------------------------------|-17--12-(12)-15-13--12-10-12----|

|----------10-(10)----------------------------------|--------------------------------|

|-------10---------10-------------------------------|--------------------------------|

|----14---------------14-------14----14----14----14-|--------------------------------|

|-12---------------------12-15----14----12----11----|--------------------------------|

|---------------------------------------------------|--------------------------------|





+E S S E S S E. S +E E W

|-(12)-10-8-10-8-7-8--------7---|----------------------|

|---------------------8-(8)-----|-10-------------------|

|-------------------------------|----------------------|

|-------------------------------|----------------------|

|-------------------------------|----------------------|

|-------------------------------|----------------------|

|

| Gtr IV

| H Q E S S E. S E. S E. S E. S

|-----------------------------7-|--7--5-5--7-7--5-5--7-|

|-----------------------------8-|--8--6-6--8-8--6-6--8-|

|-------------------------------|----------------------|

|-------------------------------|----------------------|

|-------------------------------|----------------------|

|-------------------------------|----------------------|





+E S S E E E. S +E E W

|---------------7-8--------7---|-----------------------|

|-(10)-10-10-10------8-(8)-----|-10--------------------|

|------------------------------|-----------------------|

|------------------------------|-----------------------|

|------------------------------|-----------------------|

|------------------------------|-----------------------|

|

| E E Q Q E S S E. S E. S E. S E. S

|---5------------------------7-|--7--5-5--7-7--5-5--7--|

|---6------------------------8-|--8--6-6--8-8--6-6--8--|

|------------------------------|-----------------------|

|------------------------------|-----------------------|

|------------------------------|-----------------------|

|------------------------------|-----------------------|





E S S S S S S E. S +S S E +E. S +S S E +E. S +S S E

|------------8-10-12-13------12-(12)-10-12-|-(12)-----10-(10)-8-10-(10)------8--(8)-7--8-|

|-10-10-8-10-------------------------------|---------------------------------------------|

|------------------------------------------|---------------------------------------------|

|------------------------------------------|---------------------------------------------|

|------------------------------------------|---------------------------------------------|

|------------------------------------------|---------------------------------------------|

|

| H S S S S +S S E S S S S +S S E S S S S +S S E

|--5---------------------------------------|---------------------------------------------|

|--6-----------------------6-10-(10)--6-10-|--------6-10-(10)-6-10--------6-10-(10)-6-10-|

|------------------------9-----------------|------9---------------------9----------------|

|---------------------7--------------------|---7---------------------7-------------------|

|------------------------------------------|---------------------------------------------|

|------------------------------------------|---------------------------------------------|





|--3---| |-------3--------|

+Q Q Q E. S +S S E +E. S +S S E +Q Q Q

|--(8)-10-12-13------12-(12)-10-12-|-(12)-----10-(10)-8-10-(10)-----8---------7-----|

|----------------------------------|------------------------------------------------|

|----------------------------------|------------------------------------------------|

|----------------------------------|------------------------------------------------|

|----------------------------------|------------------------------------------------|

|----------------------------------|------------------------------------------------|

|

| +H S S S S +S S E S S S S +S S E S S S S +S S E

|----------------------------------|-----------5--(5)----5------------5-(5)-----5---|

|-(10)-------------6-10-(10)--6-10-|--------5---------5-----------5---------5-------|

|----------------9-----------------|------7---------------------7-------------------|

|-------------7--------------------|---7---------------------7----------------------|

|----------------------------------|------------------------------------------------|

|----------------------------------|------------------------------------------------|





Q Q H W

|-8-------7-------------|----------|

|-----------------10----|----------|

|-----------------------|----------|

|-----------------------|----------|

|-----------------------|----------|

|-----------------------|----------|

|

| S S S S S S S S H W

|-------5-------7-------|----------|

|-7---7---9---9---------|----------|

|---7-------9-----------|----------|

|-----------------------|----------|

|-----------------------|----------|

|-----------------------|----------|

|

| Gtr I

| W W

|-----------------------|----------|

|-----------------------|----------|

|-----------------------|----------|

|-----------------------|----------|

|-----------------------|----------|

|-----------------------|----------|





H E S S E E Q. S S H

|--------------------------8-7-8-12-|-10-----8-7-8----|

|-----------------------------------|-----------------|

|-----------------------------------|-----------------|

|-----------------------------------|-----------------|

|-----------------------------------|-----------------|

|-----------------------------------|-----------------|

|

| S S S S S S S S H Q Q H

|---13-17-20-19-15------------------|-----------------|

|------------------15-13------------|------------6----|

|-----------------------------------|--4---5----------|

|------------------------7----------|-----------------|

|-----------------------------------|-----------------|

|-----------------------------------|-----------------|

|

| S S S S S S S S H W

|---13-17-20-19-15------------------|-----------------|

|------------------15-13------------|-----------------|

|-----------------------------------|-----------------|

|-----------------------------------|-----------------|

|-----------------------------------|-----------------|

|-----------------------------------|-----------------|





H E S S E E E. S +E E E. S +E E

|-----------------------------8-7--8--12-|-10--15-(15)-19-19--20-(20)-17-|

|----------------------------------------|-------------------------------|

|----------------------------------------|-------------------------------|

|----------------------------------------|-------------------------------|

|----------------------------------------|-------------------------------|

|----------------------------------------|-------------------------------|

|

| S S S S S S S S Q Q Q Q H

|-----13-17-20-19-15---------------------|-------------------------------|

|-(6)----------------15-13-10-----10-----|-12------13-----13-------------|

|---------------------------9-----(9)----|-(9)-----(9)----14-------------|

|----------------------------------7-----|--9------10-----15-------------|

|----------------------------------------|----------------17-------------|

|----------------------------------------|-------------------------------|

| +H Q +Q Q Q H

|

| S S S S S S S S H W

|-----13-17-20-19-15---------------------|-------------------------------|

|--------------------15-13---------------|-------------------------------|

|----------------------------------------|-------------------------------|

|----------------------------------------|-------------------------------|

|----------------------------------------|-------------------------------|

|----------------------------------------|-------------------------------|





+Q. S S E. S +E E Q Q E. S +E E

|-(17)---19-20-22--19-(19)-15-|-13--12--20--17-(17)-13-|

|-----------------------------|------------------------|

|-----------------------------|------------------------|

|-----------------------------|------------------------|

|-----------------------------|------------------------|

|-----------------------------|------------------------|

|

| H H H H

|-----------------------------|---------10-------------|

|-(13)------------------------|-13------12-------------|

|-(14)------------------------|-14------14-------------|

|-(15)------------------------|-15------15-------------|

|-(17)------------------------|-17------17-------------|

|-----------------------------|------------------------|

| +H H

|

| W W

|-----------------------------|------------------------|

|-----------------------------|------------------------|

|-----------------------------|------------------------|

|-----------------------------|------------------------|

|-----------------------------|------------------------|

|-----------------------------|------------------------|





Q +S S S S H +H H E T T T T S S S S E. S +S S E

|--12---(12)-10-8-7-5----|-(5)---------|-----------------8-10-12-13------12-(12)-10-12-|

|------------------------|-------------|---10-12-10-8-10-------------------------------|

|------------------------|-------------|-----------------------------------------------|

|------------------------|-------------|-----------------------------------------------|

|------------------------|-------------|-----------------------------------------------|

|------------------------|-------------|-----------------------------------------------|

|

| H H W H S S S S +S S E

|-(10)-------------------|-------------|-----------------------------------------------|

|--12--------------------|-------------|-------------------------------6-10-(10)--6-10-|

|--13--------------------|-------------|-----------------------------9-----------------|

|--14--------------------|-------------|--------------------------7--------------------|

|------------------------|-------------|-----------------------------------------------|

|------------------------|-------------|-----------------------------------------------|

H H





+E. S +S S E +E. S +S S E

|-(12)-----10-(10)-8-10-(10)------8--(8)-7--8----|

|------------------------------------------------|

|------------------------------------------------|

|------------------------------------------------|

|------------------------------------------------|

|------------------------------------------------|

|

| S S S S +S S E S S S S +S S E

|------------------------------------------------|

|--------6-10-(10)-6-10--------6-10-(10)-6-10----|

|------9---------------------9-------------------|

|---7---------------------7----------------------|

|------------------------------------------------|

|------------------------------------------------|





|--3---| |----------3----------|

+Q Q Q E. S +S S E +E. S +S S E +Q Q Q

|--(8)-10-12-13--------12-(12)-10-12-|-(12)-------10-(10)--8-10-(10)-------8------------7----|

|------------------------------------|-------------------------------------------------------|

|------------------------------------|-------------------------------------------------------|

|------------------------------------|-------------------------------------------------------|

|------------------------------------|-------------------------------------------------------|

|------------------------------------|-------------------------------------------------------|

|

| +H S S S S +S S E S S S S +S S E S S S S +S S E

|----------------12-29-17-(17)-13-29-|------12-29-17-(17)-13-29------12-29---17-(17)-13---29-|

|-(10)-------10------6-10-(10)--6-10-|--10------6-10-(10)--6-10--10------6---10-(10)--6---10-|

|-----------------9------------------|-------9------------------------9----------------------|

|-------------7----------------------|---7------------------------7--------------------------|

|------------------------------------|-------------------------------------------------------|

|------------------------------------|-------------------------------------------------------|





Q E. T T H W

|--8-----------7---------8-----7-5----|------|

|-------------------------------------|------|

|-------------------------------------|------|

|-------------------------------------|------|

|-------------------------------------|------|

|-------------------------------------|------|

|

| S S S S S S S S H W

|-26----26-29-28-----28-29pb31--------|------|

|----27----22-----29----24------------|------|

|-23----23-14-25-----25-16------------|------|

|-16-24-16----18--26-18---------------|------|

|----17-----------19------------------|------|

|-------------------------------------|------|





Ab/Eb

Gtr II

W

|

/



Gtr V

|--3--| |--3--| |--3--|

T T S T T S T T S S T T S S S S T T S S S S S S

|-23-20----------20-23-20----------20-23-20----------20-23-20----------20-|

|-------21----21----------21----21----------21----21----------21----21----|

|----------20----------------20----------------20----------------20-------|

|-------------------------------------------------------------------------|

|-------------------------------------------------------------------------|

|-------------------------------------------------------------------------|





A/E

W

|

/



|--3--| |--3--| |--3--|

T T S T T S T T S S T T S S S S T T S S S S S S

|-24-21----------21-24-21----------21-24-21----------21-24-21----------21--|

|-------22----22----------22----22----------22----22----------22----22-----|

|----------21----------------21----------------21----------------21--------|

|--------------------------------------------------------------------------|

|--------------------------------------------------------------------------|

|--------------------------------------------------------------------------|





B/F#

W

|

/



|--3--|

T T S T T S T T S S T T S S S S T T E E

|-26-24----------24-26-24----------24-26-24----------24-26---|

|-------28----28----------28----28----------28----28---------|

|----------28----------------28----------------28------------|

|------------------------------------------------------------|

|------------------------------------------------------------|

|------------------------------------------------------------|





B G#sus4

E E E E E E E. S

| | | | | | | |

/ / / / / / / /



|--3--|

T T S T T S T T S S T T S S S S T T E E

|-26-24----------24-26-24----------24-26-24----------24-26--------|

|-------28----28----------28----28----------28----28--------------|

|----------28----------------28----------------28-----------------|

|-----------------------------------------------------------------|

|-----------------------------------------------------------------|

|-----------------------------------------------------------------|





G#sus4 A B/F# Eb/G

H +Q.. S H +Q.. S H +Q.. S W

| | | | | | | | | |

/ / / / / / / / / /



W W W W

|---------------|---------------|---------------|------|

|---------------|---------------|---------------|------|

|---------------|---------------|---------------|------|

|---------------|---------------|---------------|------|

|---------------|---------------|---------------|------|

|---------------|---------------|---------------|------|





Gtr II

W W

|-----------------|-----------------|

|-----------------|-----------------|

|-----------------|-----------------|

|-----------------|-----------------|

|-----------------|-----------------|

|-----------------|-----------------|

|

| Gtr VI

| Q Q Q Q Q Q Q Q

|-21--21--21--21--|-21--21--21--21--|

|-----------------|-----------------|

|-18--18--18--18--|-18--18--18--18--|

|---------17------|-----17--17--17--|

|-----16----------|-----------------|

|-----------------|-----------------|





E. S +E E Q. E E. S +E E H

|-----------------------|---------------------|

|-----------------------|---------------------|

|-----------------------|---------------------|

|-----------------------|---------------------|

|--4--------2-----------|---------------------|

|-----7-(7)----8--------|--7--2-(2)----0------|

|

| Q Q Q Q Q Q Q Q

|-21----21----21---21---|-21----21----21--21--|

|-----------------------|---------------------|

|-18----18----18---18---|-18----18----18--18--|

|-17----17----17---17---|-17----17----17--17--|

|-----------------------|---------------------|

|-----------------------|---------------------|





E. S +E E Q. E E. S +E E Q S E.

|-----------------------|-----------------14-16--|

|-----------------------|------------------------|

|-----------------------|------------------------|

|-----------------------|------------------------|

|--4--------2-----------|------------------------|

|-----7-(7)----8--------|--7--2-(2)----0---------|

|

| Q Q Q Q Q Q Q Q

|-21----21----21---21---|-21----21----21---------|

|-----------------------|------------------------|

|-18----18----18---18---|-18----18----18---------|

|-17----17----17---17---|-17----17----17---------|

|-----------------------|------------------------|

|-----------------------|------------------------|





|--3---|

E. S +S S E +E. S +S S E +E. S +S S E +Q Q Q

|-17--------16-(16)-14-16-(16)-------14-(14)-12-14-|-(14)-------12-(12)-11-12-(12)-14-16--|

|--------------------------------------------------|--------------------------------------|

|--------------------------------------------------|--------------------------------------|

|--------------------------------------------------|--------------------------------------|

|--------------------------------------------------|--------------------------------------|

|--------------------------------------------------|--------------------------------------|

|

| Gtr IV

| S S S S +S S E S S S S +S S E S S S S +S S E +H

|--------------------------------------------------|--------------------------------------|

|--------10-14-(14)-10-14---------10-14-(14)-10-14-|---------10-14-(14)-10-14-(14)--------|

|-----13-----------------------13------------------|------13------------------------------|

|-11-----------------------11----------------------|--11----------------------------------|

|--------------------------------------------------|--------------------------------------|

|--------------------------------------------------|--------------------------------------|





|-----------3-----------|

E. S +S S E +E. S +S S E +Q Q Q Q Q

|-17--------16-(16)-14-16-(16)-------14-(14)-12-14-|-(14)-------12------------11----12---------11----------|

|--------------------------------------------------|-------------------------------------------------------|

|--------------------------------------------------|-------------------------------------------------------|

|--------------------------------------------------|-------------------------------------------------------|

|--------------------------------------------------|-------------------------------------------------------|

|--------------------------------------------------|-------------------------------------------------------|

|

| S S S S +S S E S S S S +S S E S S S S +S S E S S S S S S S S

|--------------------------------------------------|-----------------------------------------9----------11-|

|--------10-14-(14)-10-14---------10-14-(14)-10-14-|---------10----14-(14)-10----14-11----11---13----13----|

|-----13-----------------------13------------------|------13---------------------------11---------13-------|

|-11-----------------------11----------------------|--11---------------------------------------------------|

|--------------------------------------------------|-------------------------------------------------------|

|--------------------------------------------------|-------------------------------------------------------|





Slower Q=72

E S S E S S E S S E E E S S E S S E S S Q

|-------------------13----------13-|-13-13-13-13-13-13-16-13-13-13----|

|-14-14-14-14-14-14----14-14-14----|-14-14-14-14-14-14-18-14-14-14----|

|----------------------------------|----------------------------------|

|----------------------------------|----------------------------------|

|----------------------------------|----------------------------------|

|----------------------------------|----------------------------------|

|

| E S S E S S E S S E E E S S E S S E S S Q

|-------------------13----------13-|-13-13-13-13-13-13-16-13-13-13----|

|-14-14-14-14-14-14----14-14-14----|-14-14-14-14-14-14-18-14-14-14----|

|----------------------------------|----------------------------------|

|----------------------------------|----------------------------------|

|----------------------------------|----------------------------------|

|----------------------------------|----------------------------------|





Q=71 Q=68 Q=66 Q=63

E S S E S S E S S E S S

|----------21-21-21----------13-16-14-|

|-21-21-21----------21-21-21----------|

|-------------------------------------|

|-------------------------------------|

|-------------------------------------|

|-------------------------------------|

|

| E S S E S S E S S E S S

|----------21-21-21-------------28-26-|

|-21-21-21-18-18-18-21-21-21-18-18-19-|

|-18-18-18----------18-18-18-18-25-20-|

|-------------------------------------|

|-------------------------------------|

|-------------------------------------|





Q=60Q=58 Q=55 Q=52 Q=50 Q=40

Q E E E E E E W +H +Q Q

|-13--16-14-13-14-16-14-|-13--------|-(13)----(13)-----*|

|-----------------------|-----------|------------------*|

|-----------------------|-----------|------------------*|

|-----------------------|-----------|------------------*|

|-----------------------|-----------|------------------*|

|-----------------------|-----------|------------------*|

|

| Q E E E E E E W +H +Q Q

|-25--28-26-25-26-28-26-|-25--------|-(25)----(25)-----*|

|-18--21-19-18-19-21-19-|-18--------|-(18)----(18)-----*|

|-18--22-20-18-20-22-20-|-18--------|-(18)----(18)-----*|

|--------------22-23-22-|-18--------|-(18)----(18)-----*|

|-----------------25-23-|-----------|------------------*|

|-----------------------|-----------|------------------*|









http://www.gbpowertabs.tk - the best tabs on the internet.

all 100% complete (with any solos) and most include bass tabs.

the tabs actually play back to you as midi files!



--------------------------------------------------------------------------------



Duration Legend

---------------

W - whole; H - half; Q - quarter; E - 8th; S - 16th; T - 32nd; X - 64th; a - acciaccatura

+ - note tied to previous; . - note dotted; .. - note double dotted

Uncapitalized letters represent notes that are staccato (1/2 duration)

Irregular groupings are notated above the duration line

Duration letters will always appear directly above the note/fret number it represents the

duration for. Duration letters with no fret number below them represent rests. Multi-

bar rests are notated in the form Wxn, where n is the number of bars to rest for. Low

melody durations appear below the staff



Tablature Legend

----------------

h - hammer-on

p - pull-off

b - bend

pb - pre-bend

r - bend release (if no number after the r, then release immediately)

/\ - slide into or out of (from/to "nowhere")

s - legato slide

S - shift slide

- natural harmonic

[n] - artificial harmonic

n(n) - tapped harmonic

~ - vibrato

tr - trill

T - tap

TP - trem. picking

PM - palm muting


/ - tremolo bar dip; n = amount to dip


- tremolo bar down

n/ - tremolo bar up

/n\ - tremolo bar inverted dip

= - hold bend; also acts as connecting device for hammers/pulls

<> - volume swell (louder/softer)

x - on rhythm slash represents muted slash

o - on rhythm slash represents single note slash



Misc Legend

-----------

| - bar

|| - double bar

||o - repeat start

o|| - repeat end

*| - double bar (ending)

: - bar (freetime)

$ - Segno

& - Coda

Tempo markers - = BPM(8/16=s8/s16), where s8 = swing 8ths, s16 = swing 16ths
Added by tabs-database.com and our distinguished partners
Get this song at amazon.com      Ebay     Ringtones Ringtones  


Learn to play: Songwriting, Piano, Harmonica, Guitar

Related Theme Music Tabs

Braveheart Theme tabs
Captain Pugwash Theme tabs
Clown Music tabs
Sailors Hornpipe tabs
Awsome Blues Song tabs
Mario Theme Song tabs
Harry Potter-nimbus 2000 tabs
Ford Truck Song tabs
Adams Family tabs
Harry Bo tabs
Magic Roundabout Theme tabs
Dallas Theme tabs
Men Behaving Badly tabs
Old Mcdonald tabs
Family Guy tabs
Green Sleeves tabs
America tabs
Exorcist Theme tabs
Twinkle Twinkle tabs
Power Rangers Theme Song tabs


Guitar Tabs









All tabs are property and copyright of their owners. All tabs provided for educational purposes only. Privacy Policy, DMCA