Theme Music

Power Puff Girls Theme Tabs



More from Theme Music

Theme Music Tabs

tabs-database.com[http://www.tabs-database.com.com/]


--------------------

--------------------

--------10---------- X 2

---10-8-10----------

---10-8-8----------- play this later on for chorus..(..fighting

---8 -6------------- crime, trying to save the world, here they

X X X come...blah blah)

16 8 8



-------------------- -----------

-------------------- -----------

--------10---------- X 3 --8--10-12-

--10-8--10---------- --8--10-12-

--10-8--8----------- --6--8--10-

--8--6-------------- -----------

X X X X X X

8 4 4 4 1 1

this is for the everyday cartoon...but for the actual theme they continue..

a middle part goes like this..



--------------------

--------------------

------------10---12-

--10--12----10---12- i think this goes a couple of times

--10--12----8----10- while something else is played

--8---10------------

X X X X

8 8 8 8

then the chorus is played three times..the last time this is played through..



--12----12-------------------------12----12--------------

-----13----13--15/16-16-16-15-13------13----13--15-13----

------------------------------------------------------14-

---------------------------------------------------------

---------------------------------------------------------

---------------------------------------------------------



have fun and enjoy! ;)

Comments, corrections, whatever...e-mail me at ---> webmaster at tabs-database.com.com

Added by tabs-database.com and our distinguished partners
Get this song at amazon.com      Ebay     Ringtones Ringtones  


Learn to play: Songwriting, Piano, Harmonica, Guitar

Related Theme Music Tabs

Dawn Of The Dead - Little Mall Jingle tabs
Metal Gear Solid Theme tabs
Drunk Sailor tabs
Pikmin Theme tabs
Futurama Theme tabs
Here Comes The Bride tabs
Boosters Tower tabs
Peanuts Theme tabs
Happy Bday tabs
Earthbound Character Naming tabs
Charlie Brown Song tabs
Dreidel Song tabs
Halo Riff tabs
Rocky Sountrack tabs
Sonic The Hedgehog Boss Theme tabs
Yankee Doodle tabs
China Man tabs
Friends Theme Song tabs
Song From Peter Gunn tabs
007 Theme tabs


Guitar Tabs









All tabs are property and copyright of their owners. All tabs provided for educational purposes only. Privacy Policy, DMCA