Theme Music

Pink Panther Tabs



More from Theme Music

Theme Music Tabs

tabs-database.com[http://www.tabs-database.com.com/]
Song: Pink Panther Theme

Tunning: Standard



Intro -

E-----------------

B-----------------

G-----------------

D-----------------

A--4-5-6-7--------

E-----------7--0--



Verse 1 -

E--------------------------------------------

B--------------------------------------------

G----------------------5-4-------------------

D----------4-5-----4-5-------5-9-8---5-------

A--4-5-6-7-----6-7---------7-----------7-5-7-

E--------------------------------------------



Verse 2 -

E----------------------------------

B----------------------------------

G----------------------5-4-------7-

D----------4-5-----4-5-------5-9---

A--4-5-6-7-----6-7---------7-------

E----------------------------------



End -

E----------------------------------------------------

B----------------------------------------------------

G---------9-7----------------------------------------

D-------------9-7-5---8-7-8-7-8-7-8-7-5------5-------

A-4-5-6-7-----------7-------------------7------7-5-7-

E----------------------------------------------------



To me this tab sounds pretty darn good. I think it sounds

right on. Have fun with it.

Added by tabs-database.com and our distinguished partners
Get this song at amazon.com      Ebay     Ringtones Ringtones  


Learn to play: Songwriting, Piano, Harmonica, Guitar

Related Theme Music Tabs

London Bridge Is Falling Down (correct Ver.) tabs
Mxc Theme tabs
Halo 2 Theme tabs
Hardcore Twinkle Twinkle tabs
Carol Of The Bells tabs
Father Ted tabs
Babar - Retaxous Chant tabs
Happy Happy Joy Joy tabs
Italian Melody tabs
Away In A Manger tabs
Halo 2 Theme Song tabs
Fifal Goes West Theme Song tabs
Chris Benoit Entrance Music tabs
F Zero X tabs
Desperado tabs
Harry Potter-Nimbus 2 tabs
Mash tabs
Here Comes The Bride tabs
Twilight Zone tabs
Frosty The Snowman tabs


Guitar Tabs









All tabs are property and copyright of their owners. All tabs provided for educational purposes only. Privacy Policy, DMCA