Theme Music

Pikmin Theme Tabs



More from Theme Music

Theme Music Tabs

tabs-database.com[http://www.tabs-database.com.com/]
--------2-----------2-----------3-----------3-----

--------3-----------3-----------0-----------0-----

-----2-----2-----2-----------0-----0-----0-----0--

--0-----------------------------------0-----------

--------------0-----------------------------------

-----------------------3--3-----------------------



--------2------------2---------3-----0--)2--

-----3--3--3------2--2--2------0-----2--(3--

-----4-----4------3-----3---------------)2--

----------------------------------------(0--

--2-------------------------------0---------

---------------2------------3---------------



--------2-----------2-----------3-----------3-----

--------3-----------3-----------0-----------0-----

-----2-----2-----2-----------0-----0-----0-----0--

--0-----------------------------------0-----------

--------------0-----------------------------------

-----------------------3--3-----------------------



--------2------------2---------3-----0--)2--

-----3--3--3------2--2--2------0-----2--(3--

-----4-----4------3-----3---------------)2--

----------------------------------------(0--

--2-------------------------------0---------

---------------2------------3---------------



e-mail me at webmaster at tabs-database.com.com
Added by tabs-database.com and our distinguished partners
Get this song at amazon.com      Ebay     Ringtones Ringtones  


Learn to play: Songwriting, Piano, Harmonica, Guitar

Related Theme Music Tabs

The National Anthem tabs
Final Fantasy 9 Theme tabs
Dinnerladies tabs
La Cucaracha tabs
Ode To Joy(whole Song) tabs
Fraggle Rokc tabs
Olympic Fanfare tabs
Elmo Song tabs
Rocky Theme tabs
Red Vs Blue Theme tabs
Mario Brothers Theme tabs
Halo 2 Theme tabs
Eastenders tabs
Pikmin Theme tabs
Blues Riff tabs
When The Saints Come Marching In tabs
Father Ted tabs
Freddy Vs Jason tabs
Nokia Ring Tone tabs
Pink Panther tabs


Guitar Tabs









All tabs are property and copyright of their owners. All tabs provided for educational purposes only. Privacy Policy, DMCA