Theme Music

Peanuts Theme Tabs



More from Theme Music

Theme Music Tabs

tabs-database.com[http://www.tabs-database.com.com/]
Hey!! I know that once you play this song you\'re gunna be sayin\'

\"shouldn\'t this be higher!?\" but it can be played on any 2 strings I think.



E|---------------------------|

B|---------------------------|

G|---------------------------| x2

D|--------2-4-4-2-4-4-2-4-4-2|

A|-0-0-0-2-------------------|

E|---------------------------|

THEN

E|-------------------------|

B|-------------------------|

G|-------------------------| x2

D|-------------------------|

A|-0-2-4-4-4-5-4-2-0-0-2-2-|

E|-------------------------|

on the last time if you want you can play

E|-----------------------------|

B|-----------------------------|

G|-----------------------------|

D|-----------------------------|

A|0-2-4-4-5-4-2-0-0-2-2--4p2-0-|

E|-----------------------------|

REPEAT

Well i think that should be it but I\'ll take any questions

comments 20\'s 50\'s pretty much anything you give me.

and don\'t forget to rate

Added by tabs-database.com and our distinguished partners
Get this song at amazon.com      Ebay     Ringtones Ringtones  


Learn to play: Songwriting, Piano, Harmonica, Guitar

Related Theme Music Tabs

Beverly Hills Cop Riff tabs
Aladdin tabs
Mario - Up The Flag tabs
Nintendo Super Mario tabs
3 Blind Mice tabs
Babar - Retaxous Chant tabs
Green Sleeves tabs
Death Song tabs
Harry Potter Title Theme tabs
Song From Peter Gunn tabs
Nokia Ring Tone tabs
London Bridge Is Falling Down tabs
Home Depot Theme Song tabs
Evil Santa Theme tabs
Doom 2 Theme tabs
Futurama tabs
Boogie tabs
In The Jungle tabs
Smelly Cat tabs
Old Mcdonald tabs


Guitar Tabs









All tabs are property and copyright of their owners. All tabs provided for educational purposes only. Privacy Policy, DMCA