Theme Music

Origional Batman Tabs



More from Theme Music

Theme Music Tabs

tabs-database.com[http://www.tabs-database.com.com/]
Title:Batman (origional) theme

Artist:Theme Music

Transcribed By:Steven Jeans

E-Mail:webmaster at tabs-database.com.com



Standrd Tuning



A

|-----------------------------------------

|-----------------------------------------

|-----------------------------------------

|-----------------------------------------

|-2-2-1-1-0-0-1-1-2-2-1-1-0-0-1-1---------

|-0-0-0-0-0-0-0-0-0-0-0-0-0-0-0-0---------



B

|-----------------------------------------

|-----------------------------------------

|-----------------------------------------

|-2-2-1-1-0-0-1-1-2-2-1-1-0-0-1-1---------

|-0-0-0-0-0-0-0-0-0-0-0-0-0-0-0-0---------

|------------------------------------------



C

|---------------------------

|---------------------------

|-4x4-----2x2----1x1--------

|-4x4-----2x2----2x2--------

|-2x2-----1x1----2x2--------

|---------------------------

(When it says 'x' you slightly take the pressure off the stings

and dont strum on th 'x' just take preassure off)



D

|-----------------------------------------------

|-----------------------------------------------

|-----------------------------------------------

|-------------------------------------------2-2-

|-2-2-1-1-0-0-1-1-2-2-1-1-0-0-1-1-2-2-2-2---2-2-

|-0-0-0-0-0-0-0-0-0-0-0-0-0-0-0-0-0-0-0-0---0-0-



Playing order:

A x1

B x1

A x1

B x1

C x1

D x1

I think its pretty close to 100% e-mail me if you find another way.

Batman rulez. Cheers
Added by tabs-database.com and our distinguished partners
Get this song at amazon.com      Ebay     Ringtones Ringtones  


Learn to play: Songwriting, Piano, Harmonica, Guitar

Related Theme Music Tabs

Mcdonalds Theme Song tabs
Black Books Theme tabs
Phantasm tabs
House Of Hell tabs
Elise tabs
Home Depot Theme Song tabs
Dodge Commercial Theme tabs
Clown Music tabs
America tabs
Old Dragon Ball Z Theme tabs
Nabisco Theme tabs
Inu-yasha tabs
Nokia Ringtone tabs
Power Rangers Riff tabs
Friends Theme tabs
Flinstones Theme tabs
Batman Old School tabs
Mario - Up The Flag tabs
The Entertainer tabs
Egyptian Riff Example tabs


Guitar Tabs









All tabs are property and copyright of their owners. All tabs provided for educational purposes only. Privacy Policy, DMCA