Theme Music

Oompa Loompa Tabs



More from Theme Music

Theme Music Tabs

tabs-database.com[http://www.tabs-database.com.com/]
theme music-oompa loompa song

tabbed by DrowningKoRn0103

standard tuning



|---------------------------------------|

|---------------------------------------|

|---------------------------------------|

|---------------------------------------|

|-----------0---0---0-----2-2-0---------|

|-7-0-7-0-7---3-------3-2-------3-0-2---|



play it again only the ending is a little different

|---------------------------------------|

|---------------------------------------|

|---------------------------------------|

|---------------------------------------|

|-----------0---0---0-----2-2-0---------|

|-7-0-7-0-7---3-------3-2-------3-2-0---|



thats it

hope u like it

u should cuz when u think about little orange people with green hair

runnin around and singin as u play this u jus wanna laugh

Added by tabs-database.com and our distinguished partners
Get this song at amazon.com      Ebay     Ringtones Ringtones  


Learn to play: Songwriting, Piano, Harmonica, Guitar

Related Theme Music Tabs

Pulp Fiction tabs
Scooby-doo Theme tabs
Awsome Blues Song tabs
Arabian Tune tabs
Pink Panther Theme tabs
Hardcore Twinkle Twinkle tabs
Dueling Banjos tabs
Nintendo Super Mario tabs
Eurotrip tabs
Away Ib A Manger tabs
Friends Theme Song tabs
Harry Bo tabs
Dreidel Song tabs
Twinkel Twinkle tabs
French Song tabs
Somewhere Over The Rainbow tabs
Megaman Theme tabs
Ford Truck Song tabs
Monkey Island Theme tabs
Sesame Street tabs


Guitar Tabs









All tabs are property and copyright of their owners. All tabs provided for educational purposes only. Privacy Policy, DMCA