Theme Music

Ode To Joy(whole Song) Tabs



More from Theme Music

Theme Music Tabs

tabs-database.com[http://www.tabs-database.com.com/]
E-0-0-1-3-3-1-0---------0-0----

B-1-1-----------3-1-1-3---1-3-3

G-0-0---------------------0----

D------------------------------

A------------------------------

E------------------------------



E-0-0-1-3-3-1-0--------0-----0-

B-1-1----------3-1-1-3---3-1-1-

G-0-0------------------------0-

D------------------------------

A------------------------------

E------------------------------



E------------------------------

B-3-3-5-1-3-6-5-1-3-6-5-3-1-3-3

G------------------------------

D------------------------------

A------------------------------

E------------------------------



E-0-0-1-3-3-1-0--------0-----0-

B-1-1----------3-1-1-3---3-1-1-

G-0-0------------------------0-

D------------------------------

A------------------------------

E------------------------------
Added by tabs-database.com and our distinguished partners
Get this song at amazon.com      Ebay     Ringtones Ringtones  


Learn to play: Songwriting, Piano, Harmonica, Guitar

Related Theme Music Tabs

Skip To My Lou tabs
Holloween Theme tabs
National Antheme tabs
Match Of The Day tabs
Sailors Hornpipe tabs
Captain Pugwash Theme tabs
Twinkle Twinkle tabs
When The Saints Come Marching In tabs
Peter Gunn Theme tabs
Boy Meets World Theme Song tabs
La Cucaracha tabs
Can-Can tabs
America tabs
Duke Nukem Theme tabs
Ode To Joy(whole Song) tabs
Halloween Movie Theme tabs
Happy Birthday tabs
F Zero X tabs
Dodge Commercial Theme tabs
Nokia Tune tabs


Guitar Tabs









All tabs are property and copyright of their owners. All tabs provided for educational purposes only. Privacy Policy, DMCA