Theme Music

O Canada Tabs



More from Theme Music

Theme Music Tabs

tabs-database.com[http://www.tabs-database.com.com/]
Hey the other tabs for this were pretty brutal for timing, so hears a good one.

Thomas



O Canada



E|----------|-------------|----------------------|

B|----------|-------------|----------------------|

G|----------|---------2---|---------2-4-4-2-2----|

D|-2-5-5----|-0-2-3-5---0-|-2-4-4-5------------5-|

A|--------3-|-------------|----------------------|

E|----------|-------------|----------------------|



E|--------------------------------------|

B|--------------------------------------|

G|-------------------------2------------|

D|-0-2-3-2-0-2-3-5-3-2-3-5---5-3-2-0----|

A|--------------------------------------|

E|--------------------------------------|



E|------------------------------------|

B|------------------------------------|

G|------------------------------------|

D|-0-2-3-2-0-2-3-5-3-2-2-0-5-5-4-2-4-5|

A|------------------------------------|

E|------------------------------------|



E|---------|---------|---------------------|

B|---------|---------|---------------------|

G|---------|---2-2---|---1-1-2-------------|

D|-2-5-5---|-3-----0-|-5-------3-2-0---0-2-|

A|-------3-|---------|---------------3-----|

E|---------|---------|---------------------|



E|--------------------------|

B|--------------------------|

G|---5-5-2--------0---------|

D|-5--------3-2-0-----------|

A|------------------2-3-----|

E|--------------------------|
Added by tabs-database.com and our distinguished partners
Get this song at amazon.com      Ebay     Ringtones Ringtones  


Learn to play: Songwriting, Piano, Harmonica, Guitar

Related Theme Music Tabs

Silent Night tabs
Inu-yasha tabs
Aladdin Theme tabs
Irish Jigg tabs
Old Dragon Ball Z Theme tabs
Here Comes The Bride tabs
Misc Riff tabs
Head Bangers Ball Theme tabs
Ode To Joy tabs
Old Man Six Flags tabs
Phantom Of The Opera tabs
More Than - Insurance tabs
Cool Depressing Riff tabs
Eye Of The Tiger tabs
The Can Can tabs
Elmo Song tabs
Auld Lang Syne(classic) tabs
Auld Lang Zyne tabs
Egyptian Riff tabs
Metal Gear Solid Theme tabs


Guitar Tabs









All tabs are property and copyright of their owners. All tabs provided for educational purposes only. Privacy Policy, DMCA