Theme Music

Ned's Declassified School Survival Guide Theme Tabs



More from Theme Music

Theme Music Tabs




hey, this is my first tab ever, im pretty sure this is right its
a really simple song

standard tuning

E--------------------------------
B--------------------------------
G--9-----7-7--------------------- x2
D--9-----7-7-----7-7-----9-9-----
A--7-----5-5-----7-7-----9-9-----
E----------------5-5-----7-7-----

just play this one power chord after you repeat the other 1 twice

E-----------
B-----------
G-----9-----
D-----9-----
A-----7-----
E-----------



Get this song at amazon.com      Ebay     Ringtones Ringtones  


Learn to play: Songwriting, Piano, Harmonica, Guitar

Related Theme Music Tabs

Boosters Tower tabs
Pikmin Theme tabs
National Anthem tabs
China Man tabs
Ode To Joy tabs
Peoples Courtpunkway And Mormal tabs
Phantasm tabs
Mario Brothers Theme tabs
Finger Tap Practice tabs
Night Rider tabs
King Of The Hill Theme tabs
Max Payne 2 Main Theme tabs
Eye Of The Tiger tabs
Sharpe Theme tabs
Team Fresh Theme tabs
Snake Charming Song tabs
Elise tabs
Buffy Acoustic Theme tabs
Disapointment Thingy tabs
Megaman Theme tabs


Guitar Tabs









All tabs are property and copyright of their owners. All tabs provided for educational purposes only. Privacy Policy, DMCA