Theme Music

National Anthem Tabs



More from Theme Music

Theme Music Tabs

tabs-database.com[http://www.tabs-database.com.com/]
ALRIGHT. THIS IS THE ALMIGHTY NATIONAL ANTHEM. YOU ONLY USE

THE D, G, AND E STRINGS SO ITS REALLY EASY TO PICK UP ON.

IF YOU LIKE IT, PLEASE RATE IT! (this is my first tab, so take it easy on me please. thanx)



Tuning: Standard

Difficulty: Easy

Sound Recomendations: Clean or Distortion, cool either way. If you can get two

guitars going together on this, that\'s awesome too.



Play this bar twice (2x)

|-0-----------0--5--9--7--5-----------------9--7--5--4--2--4--5--5---------|

|----2-----2-----------------2--4--5--5--5--------------------------4----2-|

|-------2--------------------------------------------------------------2---|

|--------------------------------------------------------------------------|

|--------------------------------------------------------------------------|

|--------------------------------------------------------------------------|



Then, play this:

|-9--9--9--10--12--12--10--9--7--9--10--10--10--9--7--5--4--2--4--------------5--5--5--4--2--2--2--7--10--9--|

|-----------------------------------------------------------------2--4--5--5---------------------------------|

|------------------------------------------------------------------------------------------------------------|

|------------------------------------------------------------------------------------------------------------|

|------------------------------------------------------------------------------------------------------------|

|------------------------------------------------------------------------------------------------------------|



|-7--5--5--4--0--0--5--7--9--10--12--5--7--9--10--7--5--|

|-------------------------------------------------------|

|-------------------------------------------------------|

|-------------------------------------------------------| END!

|-------------------------------------------------------|

|-------------------------------------------------------|



HOPE YOU LIKE THIS TAB. PLEASE RATE IT! GOD BLESS!

TABBED BY: CHRIS KASOWSKI \"TRUEMETAL411\"
Added by tabs-database.com and our distinguished partners
Get this song at amazon.com      Ebay     Ringtones Ringtones  


Learn to play: Songwriting, Piano, Harmonica, Guitar

Related Theme Music Tabs

Drunk Sailor tabs
Auld Lang Syne tabs
Simpsons Theme tabs
Carol Of The Bells tabs
Silent Night tabs
Medieval Song tabs
Pink Panther tabs
Friends Theme Tune tabs
Holloween Theme tabs
Aladdin tabs
Elise tabs
Eurotrip tabs
Misc. Jazz Tune tabs
Yankee Doodle tabs
Harry Potter-nimbus 2000 tabs
Happy Bday tabs
Can-Can tabs
Frosty The Snowman tabs
Pulp Fiction Theme tabs
Phoenix Nights tabs


Guitar Tabs









All tabs are property and copyright of their owners. All tabs provided for educational purposes only. Privacy Policy, DMCA