Theme Music

Nabisco Theme Tabs



More from Theme Music

Theme Music Tabs

tabs-database.com[http://www.tabs-database.com.com/]
Nabisco theme?

By: Tommy eagle

Standard tuning

(e,b,g,d,a,E)





e |----------------------------------------------------------------------------|

b |--------------17--19------21-17-21----20-16-20----19-15-19------------------|

g |----18--20------------------------------------------------------------------|

d |----------------------------------------------------------------------------|

a|----------------------------------------------------------------------------|

E |----------------------------------------------------------------------------|



e |-----------------------------------------21-19-16-----------19--------------|

b|------------- 17--19------21-17-21---------------17--21---------------------|

g |---18---20------------------------------------------------------------------|

d |----------------------------------------------------------------------------|

a |----------------------------------------------------------------------------|

E |----------------------------------------------------------------------------|

this tab isn’t very “me” but I guess if you like Nabisco…….(if that’s even what it is)
Added by tabs-database.com and our distinguished partners
Get this song at amazon.com      Ebay     Ringtones Ringtones  


Learn to play: Songwriting, Piano, Harmonica, Guitar

Related Theme Music Tabs

Back To The Future tabs
Elmos Song tabs
Dsb Harry tabs
Dueling Banjo tabs
Batman Old School tabs
Doug Theme tabs
Fraggle Rokc tabs
Greensleves tabs
Pulp Fiction Theme tabs
Phoenix Nights tabs
Norwgian Nathional Anthem tabs
Old Man Six Flags tabs
Sonic The Hedgehog Boss Theme tabs
Bell Chime tabs
Power Rangers Riff tabs
Somewhere Over The Rainbow tabs
Arabian Tune tabs
Carling Advert tabs
Team Fresh Theme tabs
99 Bottles Of Beer On The Wall tabs


Guitar Tabs









All tabs are property and copyright of their owners. All tabs provided for educational purposes only. Privacy Policy, DMCA