Theme Music

More Than - Insurance Tabs



More from Theme Music

Theme Music Tabs

tabs-database.com[http://www.tabs-database.com.com/]
e|---------------------------|---------------------------|

B|8---8-8---8-10---10-10---10|8---8-8---8-10---10-10---10|

G|--9-----9------9-------9---|--9-----9------9-------9---|

D|---------------------------|---------------------------|

A|---------------------------|---------------------------|

E|---------------------------|---------------------------|



e|------------------------|----------------------------|----------------------|

B|8---8-8---8-8---8-8---8-|8---8-8---8-10---10-10---10-|6---6-6---6-8---8-8---|

G|--9-----9-----7-----7---|--9-----9------9-------9----|--7-----7-----7-----7-|

D|------------------------|----------------------------|----------------------|

A|------------------------|----------------------------|----------------------|

E|------------------------|----------------------------|----------------------|



thats the gist of it

Added by tabs-database.com and our distinguished partners
Get this song at amazon.com      Ebay     Ringtones Ringtones  


Learn to play: Songwriting, Piano, Harmonica, Guitar

Related Theme Music Tabs

Pikmin Theme tabs
Charmed Theme tabs
Hardcore Twinkle Twinkle tabs
Italian Melody tabs
Beauty And The Beast tabs
Max Payne 2 Main Theme tabs
Blues Riff tabs
Inu-yasha (outro - Deep Forest) tabs
Twilight Zone tabs
Fa La La La La tabs
Dominos Theme tabs
French Song tabs
You Are My Sunshine tabs
Fur Elise tabs
Popeye The Sailor Man tabs
Max Payne Theme tabs
Sky News tabs
Rocky Theme tabs
Scooby-doo Theme tabs
Medieval Song tabs


Guitar Tabs









All tabs are property and copyright of their owners. All tabs provided for educational purposes only. Privacy Policy, DMCA