Theme Music

Men Behaving Badly Tabs



More from Theme Music

Theme Music Tabs

tabs-database.com[http://www.tabs-database.com.com/]
This is recognised by every body so is cool to play and its easy,



|-----------------------| |-----------------5-3-2-|

|-0h3-7-5-3h5-3-2h3-2-0-| |-0h3-7-5-3h5-3-2-------|

|-----------------------| |-----------------------|

|-----------------------| |-----------------------|

|-----------------------| |-----------------------|

|-----------------------| |-----------------------|



|-----------------------| |-----------------------|

|-0h3-7-5-3h5-3-2h3-2-0-| |-3---3---3-0-----------|

|-----------------------| |-----------------------|

|-----------------------| |---5---4---------------|

|-----------------------| |-----------------------|

|-----------------------| |-----------------------|



|-------------5-3-2-----| |-5-7-9-5--12-10-9------|

|-0h3-8-7-5-3-----------| |-----------------------|

|-----------------------| |-----------------------|

|-----------------------| |-----------------------|

|-----------------------| |-----------------------|

|-----------------------| |-----------------------|



|-5-7-9-5--3-5-7-3-2----|

|-----------------------|

|-----------------------|

|-----------------------|

|-----------------------|

|-----------------------|



|-----------------------| |-----------------------|

|-0h3-7-5-3h5-3-2h3-2-0-| |-3---3---3-0-----------|

|-----------------------| |-----------------------|

|-----------------------| |---5---4---------------|

|-----------------------| |-----------------------|

|-----------------------| |-----------------------|



The last few lines aren't right but they sound pritty close, so its cool,



Foz
Added by tabs-database.com and our distinguished partners
Get this song at amazon.com      Ebay     Ringtones Ringtones  


Learn to play: Songwriting, Piano, Harmonica, Guitar

Related Theme Music Tabs

Dallas Theme tabs
Match Of The Day tabs
Sesame Street tabs
Old Dragon Ball Z Theme tabs
Flinstones Theme tabs
Twinkel Twinkle tabs
Pikmin Theme tabs
Hardcore Twinkle Twinkle tabs
Eastenders Theme tabs
Carol Of The Bells tabs
Eye Of The Tiger tabs
We Wish You A Merry Christmas tabs
F Zero X tabs
Do Wah Diddy Diddy tabs
Good Picking Song For Beginers tabs
Father Ted tabs
Carling Advert tabs
Peter Gun tabs
Nabisco Theme tabs
Star Spangled Banner tabs


Guitar Tabs









All tabs are property and copyright of their owners. All tabs provided for educational purposes only. Privacy Policy, DMCA