Theme Music

Mcdonalds Theme Song Tabs



More from Theme Music

Theme Music Tabs

tabs-database.com[http://www.tabs-database.com.com/]
e-----------------------------------------------------------------------

B-----------------------------------------------------------------------

G-----------------------------------------------------------------------

D-----------2--0--2-0---------------------------------------------------

A--0--2--3-------------3-3---------------------------------------------

E-----------------------------------------------------------------------



e-----------------------------------------------------------------------

B-----------------------------------------------------------------------

G-----------------------------------------------------------------------

D-----------2--0--2-0---------------------------------------------------

A--0--2--3-------------3-3---------------------------------------------

E-----------------------------------------------------------------------



i had to type it twice or else tabs-database.com[http://www.tabs-database.com.com/]
\\

\\\\\\ //

\\--\\ / /

\\ \\___ / /

\\ \\_/ /

iii_________________________\\ / Guitar?

_________________________ | | | \\

iii / _ \\ \\

/ ___/ \\ \\

/ / \\ \\

/--/ \\\\

///

/
Added by tabs-database.com and our distinguished partners
Get this song at amazon.com      Ebay     Ringtones Ringtones  


Learn to play: Songwriting, Piano, Harmonica, Guitar

Related Theme Music Tabs

Philippine National Anthem tabs
Mario - Up The Flag tabs
Mash tabs
London Bridge tabs
Black Books Theme tabs
Pikmin Theme tabs
Conan The Barbarian tabs
Head Bangers Ball Theme tabs
Amazing Grace tabs
Spanish Anthem tabs
Auld Lang Zyne tabs
Napoleon Dynamite tabs
Fast Jewish-italian Song tabs
Charlie Brown Song tabs
Italian Melody tabs
Power Rangers Theme Song tabs
Eastenders Theme tabs
Seseme Street tabs
Beavis And Butthead Theme tabs
Phantom Of The Opera tabs


Guitar Tabs









All tabs are property and copyright of their owners. All tabs provided for educational purposes only. Privacy Policy, DMCA