Theme Music

Mash Tabs



More from Theme Music

Theme Music Tabs

tabs-database.com[http://www.tabs-database.com.com/]
M*A*S*H Theme Song

Tabber: Kenneth Boston



e|---------|

B|-----3-2-|

G|----4----|

D|---4-----|

A|--2------|

E|---------| x2





|---5--3--2--3--2--3--2--0---|

|----------------------------|

|----------------------------|

|----------------------------|

|----------------------------|

|----------------------------|





|--2--0--2--0--2--0-------|---2--0-----0-----0---------|

|--------------------3----|---------3-----3-----3--2---|

|-------------------------|----------------------------|

|-------------------------|----------------------------|

|-------------------------|----------------------------|

|-------------------------|----------------------------|



|0---------------0--2--|

|--3--2--3--2--3-------|

|----------------------|

|----------------------|

|----------------------|

|----------------------|





|--5--7--5--7--5--7--5----|

|-------------------------|

|-------------------------|

|-------------------------|

|-------------------------|

|-------------------------| x2





|--5--2--5--7--10--12--10--7--5--7|

|---------------------------------|

|---------------------------------|

|---------------------------------|

|---------------------------------|

|---------------------------------|

Please Rate

Added by tabs-database.com and our distinguished partners
Get this song at amazon.com      Ebay     Ringtones Ringtones  


Learn to play: Songwriting, Piano, Harmonica, Guitar

Related Theme Music Tabs

Power Rangers Riff tabs
The Can Can tabs
Japanese Music (i Think) tabs
Fur Elise tabs
Boogie tabs
Perfect Dark tabs
Boy Meets World Theme Song tabs
Father Ted tabs
Disapointment Thingy tabs
Oompa Lumpa Song tabs
Mxc Theme Song tabs
Pink Panther tabs
Can-Can tabs
Pikmin Theme tabs
Death Song tabs
Metroid Theme Song tabs
Wolf Whistle tabs
Rocky Sountrack tabs
Norwgian Nathional Anthem tabs
Alton Towers Theme tabs


Guitar Tabs









All tabs are property and copyright of their owners. All tabs provided for educational purposes only. Privacy Policy, DMCA