Theme Music

King Of The Hill Theme Tabs



More from Theme Music

Theme Music Tabs

Hey, i think this a pretty good tab so please rate it



E-------------------------------------------------------------------

B----2-2------------------------------------------------------------

G----2-2---1--------------------------------------------------------

D----2-2---2--------------------------------------------------------

A--0-------2--------------------------------------------------------

E--------0----------------------------------------------------------



E-------------------------------------------------------------------

B-------------------------------------------------------------------

G--------------------------2-2-2-2-2-2---6-4------------------------

D-2-2-2-2-X-X--6-6-2-2-2-2-2-2-2-2-2-2---6-4------------------------

A-2-2-2-2-X-X--6-6-2-2-2-2-0-0-0-0-0-0---4-2------------------------

E-0-0-0-0-X-X--4-4-0-0-0-0------------------------------------------



E-------------------------------------------------------------------

B-------------------------------------------------------------------

G-------------------------------------------------------------------

D-2-2-2-2-X-X--6-6-2-2-2-2---7-7-6-6-4-4---7-7-6-6-4-4---7-7-6-6----

A-2-2-2-2-X-X--6-6-2-2-2-2---7-7-6-6-4-4---7-7-6-6-4-4---7-7-6-6----

E-0-0-0-0-X-X--4-4-0-0-0-0---5-5-4-4-2-2---5-5-4-4-2-2---5-5-4-4----



E-------------------------------------------------------------------

B-------------------------------------------------------------------

G--------------------------2-2-2-2-2-2---6-4------------------------

D-2-2-2-2-X-X--6-6-2-2-2-2-2-2-2-2-2-2---6-4------------------------

A-2-2-2-2-X-X--6-6-2-2-2-2-0-0-0-0-0-0---4-2------------------------

E-0-0-0-0-X-X--4-4-0-0-0-0------------------------------------------



E-------------------------------------------------------------------

B-------------------------------------------------------------------

G-------------------------------------------------------------------

D-2-2-2-2-X-X--6-6-2-2-2-2---7-7-6-6-4-4---7-7-6-6-4-4---7-7-6-6----

A-2-2-2-2-X-X--6-6-2-2-2-2---7-7-6-6-4-4---7-7-6-6-4-4---7-7-6-6----

E-0-0-0-0-X-X--4-4-0-0-0-0---5-5-4-4-2-2---5-5-4-4-2-2---5-5-4-4----



E-------------------------------------------------------------------

B-------------------------------------------------------------------

G--6-6-6-6-----------------7-7-7-7-7-7-7-7--------------------------

D--6-6-6-6-6-6-6-6-7-7-7-7-7-7-7-7-7-7-7-7--------------------------

A--4-4-4-4-6-6-6-6-7-7-7-7-5-5-5-5-5-5-5-5--------------------------

E----------4-4-4-4-5-5-5-5------------------------------------------



E-------------------------------------------------------------------

B-------------------------------------------------------------------

G-6-6-6-6-----------------------------------------------------------

D-6-6-6-6-6-6-6-6-7-7-7-7-9-9-9-9-----------------------------------

A-4-4-4-4-6-6-6-6-7-7-7-7-9-9-9-9-----------------------------------

E---------4-4-4-4-5-5-5-5-7-7-7-7-----------------------------------



E-------------------------------------------------------------------

B-------------------------------------------------------------------

G--------------------------2-2-2-2-2-2---6-4------------------------

D-2-2-2-2-X-X--6-6-2-2-2-2-2-2-2-2-2-2---6-4------------------------

A-2-2-2-2-X-X--6-6-2-2-2-2-0-0-0-0-0-0---4-2------------------------

E-0-0-0-0-X-X--4-4-0-0-0-0------------------------------------------



E-------------------------------------------------------------------

B-------------------------------------------------------------------

G-------------------------------------------------------------------

D-2-2-2-2-X-X--6-6-2-2-2-2---7-7-6-6-4-4---7-7-6-6-4-4---7-7-6-6----

A-2-2-2-2-X-X--6-6-2-2-2-2---7-7-6-6-4-4---7-7-6-6-4-4---7-7-6-6----

E-0-0-0-0-X-X--4-4-0-0-0-0---5-5-4-4-2-2---5-5-4-4-2-2---5-5-4-4----



E-------------------------------------------------------------------

B-------------------------------------------------------------------

G--------------------------2-2-2-2-2-2---6-4------------------------

D-2-2-2-2-X-X--6-6-2-2-2-2-2-2-2-2-2-2---6-4------------------------

A-2-2-2-2-X-X--6-6-2-2-2-2-0-0-0-0-0-0---4-2------------------------

E-0-0-0-0-X-X--4-4-0-0-0-0------------------------------------------



E-------------------------------------------------------------------

B-------------------------------------------------------------------

G---------------------9-9-------------------------------------------

D-14-11-9-7-6-6-7-6-2-9-9-------------------------------------------

A-14-11-9-7-6-6-7-6-2-7-7-------------------------------------------

E-12-9--7-5-4-4-5-4-0-----------------------------------------------

Get this song at amazon.com      Ebay     Ringtones Ringtones  


Learn to play: Songwriting, Piano, Harmonica, Guitar

Related Theme Music Tabs

Friends Theme tabs
Captain Pugwash Theme tabs
Pulp Fiction Theme tabs
Hockey Night In Canada Theme tabs
Nokia Ringtone tabs
Sharpe Theme tabs
Philippine National Anthem tabs
Black Books Theme tabs
Clown Music tabs
Buffy Acoustic Theme tabs
Father Ted tabs
Shrek tabs
Megaman Theme tabs
Fifal Goes West Theme Song tabs
Meow Mix Theme tabs
Coca-cola Theme tabs
Max Payne Theme tabs
Alton Towers tabs
The Can Can tabs
Fur Elise tabs


Guitar Tabs









All tabs are property and copyright of their owners. All tabs provided for educational purposes only. Privacy Policy, DMCA