Theme Music

Hedwigs Theme Tabs



More from Theme Music

Theme Music Tabs

tabs-database.com[http://www.tabs-database.com.com/]
Hedwigs theme-perfect





tuning- standard

E,a,d,g,b,e





e|---0--3-2-0-7-5-2-0-3-2---0------0-3-2-0-7-10--9-8---8-7-6---3-0--3--7--3--7--3--8-----

b|-0----------------------3---0--0-------------------8-------0---------------------------

g|---------------------------------------------------------------------------------------

d|---------------------------------------------------------------------------------------

a|---------------------------------------------------------------------------------------

E|---------------------------------------------------------------------------------------



|-7-6-6-7-3-2-0-7--3--7-3--7-3--10--9-8---8-7-6---3--0-----------------------------------

|---------------------------------------8-------0----------------------------------------

|----------------------------------------------------------------------------------------

|----------------------------------------------------------------------------------------

|----------------------------------------------------------------------------------------

|----------------------------------------------------------------------------------------



by: paintballby246

Added by tabs-database.com and our distinguished partners
Get this song at amazon.com      Ebay     Ringtones Ringtones  


Learn to play: Songwriting, Piano, Harmonica, Guitar

Related Theme Music Tabs

Mary Had A Little Lamb(rock Version) tabs
Halo 2 Theme tabs
Futurama Theme tabs
Dallas Theme tabs
Star Spangled Banner tabs
Halloween Theme Song tabs
Halo Riff tabs
Dodge Commercial Theme tabs
Yankie Doodle tabs
Gladiator Song tabs
Misc Riff tabs
George Of The Jungle tabs
Fraggle Rokc tabs
GTA Go For A Joyride tabs
Morrowind 3 Theme tabs
Rise tabs
Mortal Kombat Theme tabs
Egyptian Riff Example tabs
Perfect Dark tabs
House Of Hell tabs


Guitar Tabs









All tabs are property and copyright of their owners. All tabs provided for educational purposes only. Privacy Policy, DMCA