Theme Music

Heavy Metal Mary Had Little Lamb Tabs



More from Theme Music

Theme Music Tabs

tabs-database.com[http://www.tabs-database.com.com/]
mary had a little lamp heavy meatal version



/-slide up

~-bend



play with distortion

----------------------------------------------------------

----------------------------------------------------------

----------------------------------------------------------

-7--5--3--5--7--7--7-xx-5--5--5-xx-7/10-10----------------

-7--5--3--5--7--7--7-xx-5--5--5-xx-7/10-10----------------

-5--3--1--3--5--5--5-xx-3--3--3-xx-5/-8--8----------------



----------------------------------------------------------

----------------------------------------------------------

----------------------------------------------------------

-7--5--3--5--7--7--7-xx-5--5--7~--5--3--------------------

-7--5--3--5--7--7--7-xx-5--5--7~--5--3--------------------

-5--3--1--3--5--5--5-xx-3--3--5~--3--1--------------------



thats it enjoy

by max S. username: mxymha. email: webmaster at tabs-database.com.com
Added by tabs-database.com and our distinguished partners
Get this song at amazon.com      Ebay     Ringtones Ringtones  


Learn to play: Songwriting, Piano, Harmonica, Guitar

Related Theme Music Tabs

Auld Lang Zyne tabs
Dueling Banjos tabs
Harry Potter - Hedwigs Theme tabs
Halloween Theme Song tabs
Pulp Fiction Theme tabs
Bill Nye The Science Guy tabs
I Bet You Will tabs
Ode To Joy tabs
Song From Peter Gunn tabs
Happy Birthday tabs
Scarborough Fair tabs
A Nightmare On Elm Street Theme tabs
3rd Rock From The Sun Theme tabs
Angel Theme tabs
Eastenders Theme tabs
Shrek tabs
Nokia Tune tabs
Twinkle Twinkle tabs
Eurotrip (scotty Doesnt Know) tabs
Fast Jewish-italian Song tabs


Guitar Tabs









All tabs are property and copyright of their owners. All tabs provided for educational purposes only. Privacy Policy, DMCA