Theme Music

Hardcore Twinkle Twinkle Tabs



More from Theme Music

Theme Music Tabs

tabs-database.com[http://www.tabs-database.com.com/]
Song:Hardcore TwinkleTwinkle

Tabbed By: J.R



Riff # 1



e ---------------------------------------------------------------------------------

B ---------------------------------------------------------------------------------

G ---------------------------------------------------------------------------------

D ---------------------------------------------------------------------------------

A -----2----2----9----9----11---11---9----7----7----6----6----4----4----2-----------

E -----0----0----7----7----9----9----7----5----5----4----4----2----2----0---Heavy Dis





Riff # 2



e ---------------------------------------------------------------------------------

B ---------------------------------------------------------------------------------

G ---------------------------------------------------------------------------------

D ---------------------------------------------------------------------------------

A------9----9----7----7----6----6----4-----------------------------------------------

E -----7----7----5----5----4----4----2----------------------------------------Heavy Dis





Order:

Riff # 1

Riff # 2

Riff # 2

Riff # 1

Added by tabs-database.com and our distinguished partners
Get this song at amazon.com      Ebay     Ringtones Ringtones  


Learn to play: Songwriting, Piano, Harmonica, Guitar

Related Theme Music Tabs

Harry Potter Theme Song tabs
Match Of The Day tabs
Simpsons Theme tabs
Death Song tabs
Futurama Theme tabs
Smelly Cat tabs
Meow Mix Theme tabs
The Can Can tabs
Beverly Hills Cop Riff tabs
Sesame Street tabs
99 Bottles Of Beer On The Wall tabs
Dreidel Song tabs
Boogie tabs
Old Dragon Ball Z Theme tabs
Away Ib A Manger tabs
Drunk Sailor tabs
Pink Panther tabs
Charlie Brown Song tabs
Pulp Fiction tabs
Sonic The Hedgehog Boss Theme tabs


Guitar Tabs









All tabs are property and copyright of their owners. All tabs provided for educational purposes only. Privacy Policy, DMCA