Theme Music

Happy Happy Joy Joy Tabs



More from Theme Music

Theme Music Tabs

tabs-database.com[http://www.tabs-database.com.com/]
TV Show: Ren and Stimpy

Song: Happy Happy Joy Joy

Tabbed By:Weazil





Intro

e------------0------------1------------1---

B----------1------------0------------0-----

G--------0------------0------------0-------

D------2------------2------------2---------

A----3------------3------------3-----------

E--0------------3------------0-------------



Verse

e-----------------

B------1------1---

G------0------0---

D------2------2---

A---3---------3---

E----------3------



Interlude

e-------------------

B-------------------

G-------------------

D-------------------

A-------------------

E---3--2--3--4--3---



Continue with Verse and Interlude till End of Song
Added by tabs-database.com and our distinguished partners
Get this song at amazon.com      Ebay     Ringtones Ringtones  


Learn to play: Songwriting, Piano, Harmonica, Guitar

Related Theme Music Tabs

Elmos Song tabs
Final Fantasy 9 - Vamo Allo Flamenco tabs
Match Of The Day tabs
Barney Theme tabs
Buffy The Vampire Slayer Theme tabs
London Bridge Is Falling Down tabs
Friends Theme Tune tabs
Bill Nye The Science Guy tabs
Lost And Delirious tabs
Simpsons Theme tabs
Aladdin tabs
Song From Peter Gunn tabs
Spanish Anthem tabs
Jingle Bells tabs
Beverly Hills Cop Riff tabs
Drengene Fra Angora tabs
Bell Chime tabs
Fraggle Rokc tabs
Elmo Song tabs
Sonic The Hedgehog tabs


Guitar Tabs









All tabs are property and copyright of their owners. All tabs provided for educational purposes only. Privacy Policy, DMCA