Theme Music

Halo 2 Theme Song Tabs



More from Theme Music

Theme Music Tabs

tabs-database.com[http://www.tabs-database.com.com/]
Tuning: (EADGBE)



| / slide up

| \\ slide down

| ~ vibrato

| PM Mute note

| b bend up

| d bend down

| p pull off

| h hammer on



solo 1 (guitar 3)

|----------------------------------------------------------------------22b-(full bend)----|

|-----------------------------------------------------------------------------------------|

|-----------------------------------------------------------------------------------------|

|--/14-14~~~~~~--14/16/17--17/19~~--17-16-17--17\\12--/14~~~~~~~~-------------------------|

|-----------------------------------------------------------------------------------------|

|-----------------------------------------------------------------------------------------|





verse 1 (guitar 1)

p.m.~~~~~ p.m.~~~~~ p.m.~~~~~ p.m.~~~~~~

|---------|----------------------------------------------------------------------------------|

|---------|----------------------------------------------------------------------------------|

|---------|---------9-------x--------11-------x--------12------x---------14--------14-12-11--| play verse 1

|---------|---------9-------x--------11-------x--------12------x---------14--------14-12-11--| 3x`s

|---------|---------7-------x--------9--------x--------10------x---------12--------12-10-9---|

|-3/10\\3-|---0-0-0------------0-0-0-------------0-0-0------------0-0-0-----------------------|



verse 2 (guitar 1)

|-----------------------------------------------------------|

|-----------------------------------------------------------|

|---9-9—(9)---11-11—(11)---12-12-(12)---14-(14)---14-12-11--| play verse 2 after verse 1

|---9-9—(9)---11-11—(11)---12-12—(12)---14-(14)---14-12-11--|

|---7-7-(7)---9--9--(9)----10-10—(10)---12-(12)---12-10-9---|

|-0---------0------------0------------0---------------------|



solo 2 (guitar 3) (play after verse 1 is played twice)

|-----------------------------------------------------------------------------------------|

|--17b~~~~~~~~~--19b~~~~~~~~~--20b~~~~~~~~~~--22b~~~~~~~~~~~--22-20-22-22\\19—19/20~~~~~~-|

|-----------------------------------------------------------------------------------------|

|-----------------------------------------------------------------------------------------|

|-----------------------------------------------------------------------------------------|

|-----------------------------------------------------------------------------------------|



|-----------------------------------------------------------------------------------------|

|--19~~~~~~~~~~--17~~~~~~~~~~---15~~~~~~~~~~~~~~------------------------------------------|

|-----------------------------------------------------------------------------------------|

|-----------------------------------------------------------------------------------------|

|-----------------------------------------------------------------------------------------|

|-----------------------------------------------------------------------------------------|



solo 1 (guitar 2)

|--------------------------------------------------------------------|

|-12-------12-14--15-------12-15-14-12---------------12-14-12--------|

|--------------------------------------14-----14---------------14----|

|-----------------------------------------14-----14---------------14-|

|--------------------------------------------------------------------|

|--------------------------------------------------------------------|



|--------------------------------------------------------------------|

|-12----------14—15/17~~~~~~~----15b---14-15-14----17-15-14----15-17-|

|-----------------------------------------------17----------17-------|

|--------------------------------------------------------------------|

|--------------------------------------------------------------------|

|--------------------------------------------------------------------|



|-14--------17b~----17-17----17----------17b~~-------------15-17-----|

|----15------------------------17-15--------------15-17-19-----------|

|-------16---------------------------16------------------------------|

|--------------------------------------------------------------------|

|--------------------------------------------------------------------|

|--------------------------------------------------------------------|



|--------------------------------------------------------------------|

|-17----------17-19------17-19-20-19-17-19-17-15--14-----15-----17---|

|----------19--------------------------------------------------------|

|--------------------------------------------------------------------|

|--------------------------------------------------------------------|

|--------------------------------------------------------------------|



|---------------------------------------------------------------------------|

|-17-------17-19-19/20~~~~~-------20--19b--17-15----------15-14-15-15-14-15-|

|-----------------------------21--------------------------------------------|

|------------------------------------------------16-14-12-------------------|

|---------------------------------------------------------------------------|

|---------------------------------------------------------------------------|



|-15----13----15----13----15----13----15----13----15-17-18-20-18-17----15----|

|----15----13----15----13----15----13----15----13-------------------17----15-|

|----------------------------------------------------------------------------|

|----------------------------------------------------------------------------|

|----------------------------------------------------------------------------|

|----------------------------------------------------------------------------|



|-17----15----17----15----17----15-----14-15--14-12--------------------------|

|----17----15----17----15----17----15---------------15-----------------------|

|----------------------------------------------------------------------------|

|----------------------------------------------------------------------------|

|----------------------------------------------------------------------------|

|----------------------------------------------------------------------------|



verse 2 x\'s 2 (guitar 1)



solo 2 (guitar 2)

|---------12-14----15-14-12------------12----14----15----17----15-14-12------|

|-12------------------------15------12----12----12----12----------------15---|

|----------------------------------------------------------------------------|

|----------------------------------------------------------------------------|

|----------------------------------------------------------------------------|

|----------------------------------------------------------------------------|



|---------12-14----15-14-12------------12----14----15----17----15-14-12------|

|-12------------------------15------12----12----12----12----------------15---|

|----------------------------------------------------------------------------|

|----------------------------------------------------------------------------|

|----------------------------------------------------------------------------|

|----------------------------------------------------------------------------|



|-15----13----15----13----15----13----15----13----15-17-18-20-18-17----15----|

|----15----13----15----13----15----13----15----13-------------------17----15-|

|----------------------------------------------------------------------------|

|----------------------------------------------------------------------------|

|----------------------------------------------------------------------------|

|----------------------------------------------------------------------------|



|-17----15----17----15----17----15-----14-15--14-12--------------------------|

|----17----15----17----15----17----15---------------15-----------------------|

|----------------------------------------------------------------------------|

|----------------------------------------------------------------------------|

|----------------------------------------------------------------------------|

|----------------------------------------------------------------------------|



solo 3 (guitar 3)

|-----------------------------------------------------------------------------------------|

|-10b12~~~~12d10-10b~~~~~~----------------------------------------------------------------|

|------------------------------14b~~~~-14 14b~~~~~----14p12-14b---------------------------|

|--------------------------------------------------------------14b(hold)------16b(hold)---|

|-----------------------------------------------------------------------------------------|

|-----------------------------------------------------------------------------------------|



|-----------------------------------------------------------------------------------------|

|--------------------------------------------------17b-17b~--17-17-15-17b~~---19-17-15----|

|--12b(hold)-------14b(hold)-------14-14-12-14b-12-------------------------------------17-|

|-----------------------------------------------------------------------------------------|

|-----------------------------------------------------------------------------------------|

|-----------------------------------------------------------------------------------------|



|-----------------------------------------------------------------------------------------|

|-17b19d17-----15-17-15-15b~~~~\\---------------------------------------------------------|

|-----------------------------------------------------------------------------------------|

|-----------------------------------------------------------------------------------------|

|-----------------------------------------------------------------------------------------|

|-----------------------------------------------------------------------------------------|

^(slow bend down)





Hey! I`m Kyle, and this is my first tab, so please give me a good rating! This is all

that i got so far...after the last solo, guitar 2 plays solo 1 and 2 again with

another guitarist soloing out. i havent got that part down yet but i will asap!

i hope you like it! if you have any questions or comments email me at

webmaster at tabs-database.com.com, or i.m. me....my screenname is sportzstar1020 ! Thanks

Added by tabs-database.com and our distinguished partners
Get this song at amazon.com      Ebay     Ringtones Ringtones  


Learn to play: Songwriting, Piano, Harmonica, Guitar

Related Theme Music Tabs

Harry Potter-Nimbus 2 tabs
Snake Charming Song tabs
Happy Birthday tabs
Away Ib A Manger tabs
Mash tabs
Wolf Whistle tabs
The Cockroach Song tabs
Batman tabs
Nokia Ringtone tabs
Row Row Row Your Boat tabs
Megaman Theme tabs
Auld Lang Syne(classic) tabs
More Than - Insurance tabs
Mortal Kombat Theme tabs
Peanuts Theme tabs
Harry Bo tabs
Away In A Manger tabs
Greensleeves tabs
We Wish You A Merry Christmas tabs
Bret Hart Wwf tabs


Guitar Tabs









All tabs are property and copyright of their owners. All tabs provided for educational purposes only. Privacy Policy, DMCA

Online converter - videoconverter.com