Theme Music

Halloween Movie Theme Tabs



More from Theme Music

Theme Music Tabs

tabs-database.com[http://www.tabs-database.com.com/]
Hey, this isn't the entire song because this song is composed by an orchesatra of many intruments so its hard to figure out. But this is the main part and its sounds pretty good to me so please rate it.



E------------------------------------------------------------------------------

B------------------------------------------------------------------------------

G-12-------12-------12-----13----12--------------------------------------------

D----10-10----10-10-----10----10----10----------------------------------------- X2

A------------------------------------------------------------------------------

E------------------------------------------------------------------------------



E------------------------------------------------------------------------------

B------------------------------------------------------------------------------

G--10----10-----10---11---10---------------------------------------------------

D----8-8----8-8----8----8----8------------------------------------------------- X2

A------------------------------------------------------------------------------

E------------------------------------------------------------------------------



Hope you like the tab, its not great but its the best i can do
Added by tabs-database.com and our distinguished partners
Get this song at amazon.com      Ebay     Ringtones Ringtones  


Learn to play: Songwriting, Piano, Harmonica, Guitar

Related Theme Music Tabs

King Of The Hill Theme Song tabs
Perfect Dark tabs
Twinkle Twinkle tabs
Courage The Cowardly Dog End Theme tabs
Exorcist Theme tabs
Halo Riff tabs
Dodge Commercial Theme tabs
Skip To My Lou tabs
Phantasm tabs
Arabian Theme tabs
Fifal Goes West Theme Song tabs
Carling Advert tabs
Dreidel Song tabs
The Andy Griffin Theme Song tabs
Pink Panther Theme tabs
Metroid Theme Song tabs
Babar - Retaxous Chant tabs
Peter Gun tabs
Carol Of The Bells tabs
Beavis And Butthead tabs


Guitar Tabs









All tabs are property and copyright of their owners. All tabs provided for educational purposes only. Privacy Policy, DMCA