Theme Music

Greensleves Tabs



More from Theme Music

Theme Music Tabs

tabs-database.com[http://www.tabs-database.com.com/]
------|----------------1-----0----|-------------------|-------------------|---------------------|---------

------|---1----3------------------|--3---0---------0--|--1----------------|--0------------------|----------

--2---|---------------------------|---------0--2------|----2---2---1--2---|-------1---------2---|----------

------|---------------------------|-------------------|-------------------|------------2--------|----------

------|---0---------0-------------|-------------------|--0-----0----------|---------------------|--------

------|---------------------------|--3------3---------|-------------------|--0------------------|---------





-------------0---1--0-|------------------------|------------------------------|---------------------------------

---1----3-------------|---3---0-------------0--|---1---0----------------------|-----------------------------------

----------------------|------------0---2-------|------------2------1-------1--|-----2----2--------------------------

----------------------|------------------------|-----------------------2------|------------------------------

---0---------0--------|------------------------|---0--------------------------|-----0----0-----------------------

----------------------|---3--------3-----------|-------------------0----------|-------------------------------
Added by tabs-database.com and our distinguished partners
Get this song at amazon.com      Ebay     Ringtones Ringtones  


Learn to play: Songwriting, Piano, Harmonica, Guitar

Related Theme Music Tabs

Sonic The Hedgehog tabs
I Bet You Will tabs
Hedwigs Theme tabs
Nokia Ringtone tabs
Ode To Joy tabs
Egyptian Riff tabs
Friends Theme Song tabs
Song From Peter Gunn tabs
Final Fantasy 9 - Vamo Allo Flamenco tabs
George Of The Jungle tabs
Charmed Theme tabs
Dinnerladies tabs
Halo 2 Theme tabs
Yankie Doodle tabs
Avalanche Valley Theme tabs
Phantom Of The Opera tabs
007 Theme tabs
Oompa Loompa tabs
Batman tabs
Skip To My Lou tabs


Guitar Tabs









All tabs are property and copyright of their owners. All tabs provided for educational purposes only. Privacy Policy, DMCA