Theme Music

Good Picking Song For Beginners Tabs



More from Theme Music

Theme Music Tabs

E ----------------------------------------------------------------------

B ----------------------------------------------------------------------

G ----------------------------------------------------------------------

D ----------2---------0--------0--------0-------------------------------

A -------2----2-----0---0----2---2----4---4----------------------------- Repeat as many times as you want

E ----o-----------2--------3--------5-----------------------------------

Then Play this

E-----------------------------------------------------------------------

B-----------------------------------------------------------------------

G---------2----------0-------0-------0----------------------------------

D-------2---2------0---0---2---2---4---4--------------------------------

A-----0----------2-------3-------5--------------------------------------

E-----------------------------------------------------------------------

And there you have it

Get this song at amazon.com      Ebay     Ringtones Ringtones  


Learn to play: Songwriting, Piano, Harmonica, Guitar

Related Theme Music Tabs

Jingle Bells tabs
Mexican Hat Dance tabs
Pikmin Theme tabs
Morrowind 3 Theme tabs
Rise tabs
Father Ted tabs
A Whole New World tabs
Final Fantasy 9 Theme tabs
Mario Brothers Theme tabs
Can-Can tabs
Home Depot Theme Song tabs
F Zero X tabs
Final Fantasy 4 Edwards Theme tabs
Here Comes The Bride tabs
Aladdin tabs
Eastenders Theme tabs
Batman Theme tabs
Amazing Grace tabs
Finger Tap Practice tabs
Italian Melody tabs


Guitar Tabs









All tabs are property and copyright of their owners. All tabs provided for educational purposes only. Privacy Policy, DMCA