Theme Music

Friends Theme Tune Tabs



More from Theme Music

Theme Music Tabs

tabs-database.com[http://www.tabs-database.com.com/]




Friends



Guitar



1----------------------------

2----------------------------

3----6-6-4-2-0-0-2-4-2---

4----------------------------

5-0--------------------------

6-----------------------------



Repeat this four times





1---------------------------------------------------------

2---------0-3-2-0------------0-0----------0-3-2-0----

3-2----2-----------2-2----2-------2----2------------2-

4----2-------------------2------------2-----------------

5---------------------------------------------------------

6---------------------------------------------------------





1------------0

2-3-2-0-------3-3-3-3-3-3-3-3-2-2---0-2-3-3-3-3-3-2

3---------2-----------------------------2

4-

5-

6-





1------------------------0----------------------------

2-0-----------0-2-0------3-2----2-0-0-2-3-2-0

3---2-2----2--------2-----------2----------------2--

4--------2--------------------------------------------

5-----------------------------------------------------

6-----------------------------------------------------



Repeat three times after the first open first string





1-------------------------

2-0-0------1-0--------2-

3------2-0------2-0---2-

4-----------------------2-

5-----------------------0-

6--------------------------



There you have it are you satisfied.
Added by tabs-database.com and our distinguished partners
Get this song at amazon.com      Ebay     Ringtones Ringtones  


Learn to play: Songwriting, Piano, Harmonica, Guitar

Related Theme Music Tabs

Braveheart Theme tabs
Doom 2 Theme tabs
Happy Birthday tabs
Fifal Goes West Theme Song tabs
Spanish Anthem tabs
Popeye The Sailor Man tabs
Star Spangled Banner tabs
Hardcore Twinkle Twinkle tabs
Brilliant Little Surfing Riff tabs
Amazing Grace tabs
Futurama Theme tabs
Mxc Theme tabs
Schindlers List tabs
Extreme Happy Birthday tabs
Men Behaving Badly tabs
Phantasm tabs
Clown Music tabs
Morning Mood tabs
I Bet You Will tabs
Beavis And Butthead Outro tabs


Guitar Tabs









All tabs are property and copyright of their owners. All tabs provided for educational purposes only. Privacy Policy, DMCA