Theme Music

French National Anthem Tabs



More from Theme Music

Theme Music Tabs



The French National Anthem! Yippy! Any comments or errors e-mail me at, Marc8907@yahoo.com


|--------------------------------------------
|--------------------------------------------
|----------------7--4---4-----5--------------
|--------5-5-7-7------5---5--------7-4-5-----
|--5-5-5--------------------7----------------
|--------------------------------------------

|--------------------------------------------
|--------------------------------------------
|------4-4-4-5-44---------4-5-5-7--5-4-------
|--5-7------------7-7---7--------------------
|--------------------------------------------
|--------------------------------------------

|--------------------------------------------
|--------------------------------------------
|--777--4---7--4-----5-----------------------
|---------5------5-------7-4-5---------------
|------------------7-------------------------
|--------------------------------------------

Now wasn't that fun? I may have left out something, I highly doubt it though...RATE AWAY!


Get this song at amazon.com      Ebay     Ringtones Ringtones  


Learn to play: Songwriting, Piano, Harmonica, Guitar

Related Theme Music Tabs

Bell Chime tabs
Dinnerladies tabs
Drengene Fra Angora tabs
Pink Panther Theme tabs
Irish Jigg tabs
Nokia Ring Tone tabs
Adams Family tabs
Can-Can tabs
Twinkel Twinkle tabs
Happy Birthday With A Rock Twist tabs
Star Spangled Banner tabs
Fur Elise tabs
Meteor Tune tabs
Disapointment Thingy tabs
King Of The Hill Theme tabs
La Pantera Rosa Theme tabs
Braveheart Theme tabs
Oompa Loompa Song tabs
Old Dragon Ball Z Theme tabs
Twinkel Twinkel Little Star tabs


Guitar Tabs









All tabs are property and copyright of their owners. All tabs provided for educational purposes only. Privacy Policy, DMCA