Theme Music

Finger Tap Practice Tabs



More from Theme Music

Theme Music Tabs

tabs-database.com[http://www.tabs-database.com.com/]
Finger Tap Practice

By VanHalen1

There are many songs out there with awsome

finger tapping solos and I thought it would be good to

put them all in one tab, so I picked out some of my

favorite finger tapping and put them in this tab, You

can finger tap with obviosly your finger or the side of your pick.



Here is a farely easy tapping solo in

AC/DC’s Dirty Deeds Done Dirt Cheap



e---7p4p0---7p4p0---7p4p0----7p4p0----7p4p0----7p4p0---------

B------------------------------------------------------------

G------------------------------------------------------------

D------------------------------------------------------------

A------------------------------------------------------------

E------------------------------------------------------------



e--8p5p0-----8p5p0---8p5p0----8p5p0-----8p5p0-----8p5p0----

B----------------------------------------------------------

G----------------------------------------------------------

D----------------------------------------------------------

A----------------------------------------------------------

E----------------------------------------------------------



e---9p6p0----9p6p0---9p6p0----9p6p0-----9p6p0----9p6p0-----

B----------------------------------------------------------

G----------------------------------------------------------

D----------------------------------------------------------

A----------------------------------------------------------

E----------------------------------------------------------



You move up 1 fret after every little segment



Okay that was pretty easy

now heres one from Mettalica’s Am I Evil



e---------------------------------------------------------------------

B---8p5p0------8p5p0----8p5p0----8p5p0------8p5p0---------------------

G---------------------------------------------------------------------

D---------------------------------------------------------------------

A---------------------------------------------------------------------

E---------------------------------------------------------------------



e---------------------------------------------------------------------

B---7p4p0--7p4p0---7p4p0----7p4p0--------7p4p0------------------------

G---------------------------------------------------------------------

D---------------------------------------------------------------------

A---------------------------------------------------------------------

E---------------------------------------------------------------------



you can just keep repeating that



Now here’s one from Ozzy’s Crazy Train

e---------------------------------------------------------------------

B--14p10p7----14p10p7-----14p10p7-------14p10p7-----------------------

G---------------------------------------------------------------------

D---------------------------------------------------------------------

A---------------------------------------------------------------------

E---------------------------------------------------------------------



e---------------------------------------------------------------------

B---15p10p7----15p10p7----15p10p7-----15p10p7-------------------------

G---------------------------------------------------------------------

D---------------------------------------------------------------------

A---------------------------------------------------------------------

E---------------------------------------------------------------------



okay that was pretty simple

Now we all now if you want to here some good finger tapping just

listen to a Van Halen Song, Right. Well here’s some of my favorites

that Eddie Plays.



Ice Cream Man

This is a little harder



e----16h19p12h16p12h14p12---------16h19p12h16p12h14p12--------------

B-------------------------------------------------------------------

G-------------------------------------------------------------------

D-------------------------------------------------------------------

A-------------------------------------------------------------------

E-------------------------------------------------------------------

repeat a few times

Some great tapping from the world\'s greatest guitarest!



Eruption (The Mother of all tapping solos)

Just a little bit



e---------------------------------------------------------------

B---------------------------------------------------------------

G---14p6h9-----14p6h9-------14p6h9------------------------------

D---------------------------------------------------------------

A---------------------------------------------------------------

E---------------------------------------------------------------

play a couple of times



e---------------------------------------------------------------

B---------------------------------------------------------------

G---17p9h12-----17p9h12------17p9h12----------------------------

D---------------------------------------------------------------

A---------------------------------------------------------------

E---------------------------------------------------------------



play a few times



e---------------------------------------------------------------

B---------------------------------------------------------------

G---21p16h19----21p16h19-----21p16h19---------------------------

D---------------------------------------------------------------

A---------------------------------------------------------------

E---------------------------------------------------------------



play a few times





e---------------------------------------------------------------

B---------------------------------------------------------------

G---17p8h11-----17p8h11------17p8h11----------------------------

D---------------------------------------------------------------

A---------------------------------------------------------------

E---------------------------------------------------------------



That’s just part of the song



Then Here’s part of the intro to Hot For Teacher

e---------------------------------------------------------------

B---------------------------------------------------------------

G---------------------------------------------------------------

D---------------------------------------------------------------

A---0h3h7h12p7p3-----0h3h7h12p7p3-------------------------------

E---------------------------------------------------------------



e---------------------------------------------------------------

B---------------------------------------------------------------

G---------------------------------------------------------------

D---------------------------------------------------------------

A----0h5h9h12p9p5--------0h5h9h12p9p5---------------------------

E---------------------------------------------------------------

play that a few times



e---------------------------------------------------------------

B--------------------------------------------------------------

G---0h3h7h12p7p3----0h3h7h112p7p3------------------------------

D--------------------------------------------------------------

A--------------------------------------------------------------

E--------------------------------------------------------------



You can improvise on it



You Can practice on all of those taps, and even make up some of your

own, It’s pretty easy, find three frets and tap on them, or if you want to

get advanced, you can do a Van Halen type solo and do it on 4 or 5 frets



Please Rate
Added by tabs-database.com and our distinguished partners
Get this song at amazon.com      Ebay     Ringtones Ringtones  


Learn to play: Songwriting, Piano, Harmonica, Guitar

Related Theme Music Tabs

Mary Had Seven Lambs tabs
Angel Theme tabs
Magic Roundabout Theme tabs
Meow Mix Theme tabs
O Canada tabs
Base Ball Theme tabs
Misc. Jazz Tune tabs
The Andy Griffin Theme Song tabs
Oompa Loompa tabs
Oompa Lumpa tabs
Friends Theme tabs
Doom 2 Theme tabs
Sanford And Son tabs
King Of The Hill Theme Song tabs
Eurotrip (scotty Doesnt Know) tabs
007 Theme tabs
Old Mcdonald tabs
Elmos Song tabs
King Of The Hill Theme tabs
Meteor Tune tabs


Guitar Tabs









All tabs are property and copyright of their owners. All tabs provided for educational purposes only. Privacy Policy, DMCA