Theme Music

Father Ted Tabs



More from Theme Music

Theme Music Tabs

tabs-database.com[http://www.tabs-database.com.com/]
Father Ted Theme Tune

Written by The Divine Comedy



Here it is in full, may not be 100% accurate but it is just from my memory



h = Hammer On

(Example, 5h7 means play the 5th and hammer onto the 7th)





E--------------------------------------------------------------------------------------------------

B--------------------------------------------------------------------------------------------------

G----5---------------------------------------------------------------------------------------------

D--------------7-----5-----7---------5---------------5---------------------------------------------

A---------------------------------------------5h7--------------7------5-----7----------------------

E--------------------------------------------------------------------------------------------------



E--------------------------------------------------------------------------------------------------

B--------------------------------------------------------------------------------------------------

G------------------5----5/7------5------------5----------------------------------------------------

D------------7------------------------5h7--------------7------5-----7---------5---------------5----

A------7---------------------------------------------------------------------------------7---------

E--------------------------------------------------------------------------------------------------



E--------------------------------------------------------------------------------------------------

B--------------------------------------------------------------------------------------------------

G-----------------------5--------------------------------------------------------------------------

D-----------5----7--------------7------5------7---------5---------------5--------------------------

A------7---------------------------------------------------------5h7------------7-----6---5---7----

E--------------------------------------------------------------------------------------------------



E--------------------------------------------------------------------------------------------------

B--------------------------------------------------------------------------------------------------

G---------------5---5h7------5-----------------5------------------------5--------------------------

D----------7----------------------------5h7--------------5h7----5h7--------------------------------

A-----7--------------------------------------------------------------------------------------------

E--------------------------------------------------------------------------------------------------



There you go.

Enjoy!



Dave
Added by tabs-database.com and our distinguished partners
Get this song at amazon.com      Ebay     Ringtones Ringtones  


Learn to play: Songwriting, Piano, Harmonica, Guitar

Related Theme Music Tabs

Harry Potter Theme tabs
Blues Shuffle Theme tabs
Kakariko Village tabs
Row Row Row Your Boat tabs
Team Fresh Theme tabs
Batman Theme tabs
Angel Theme tabs
Dinnerladies tabs
Super Mario Brothers tabs
O Canada tabs
Scooby-doo Theme tabs
Blink 182 Adams Song tabs
Inu-yasha tabs
Row Row Row Ur Boat tabs
Coca-cola Theme tabs
Babar - Retaxous Chant tabs
Halloween Theme Song tabs
Origional Batman tabs
Yankee Doodle tabs
Doom 2 Theme tabs


Guitar Tabs









All tabs are property and copyright of their owners. All tabs provided for educational purposes only. Privacy Policy, DMCA