Theme Music

Family Guy Tabs



More from Theme Music

Theme Music Tabs

tabs-database.com[http://www.tabs-database.com.com/]
The Theme to “Family Guy”

Tabbed by: PID08



e:|-8-----|

B:|-------|

G:|-------|

D:|---10\-|

A:|-------|

E:|-------|



e:|-8-7-8---5-7-8p7p5-7-|

B:|---------------------|

G:|---------------------|

D:|---------------------|

A:|---------------------|

E:|---------------------|

Seems today, that all you see..



e:|-3-6p5-6p5-6/8---6-5-5-4-5-|

B:|---------------------------|

G:|---------------------------|

D:|---------------------------|

A:|---------------------------|

E:|---------------------------|

Is violence in movies and sex on TV…



e:|-1-3-3-1-4-1-5-5-6-5-4-5-------10----------8~-|

B:|--------------------------9-10----10----------|

G:|-------------------------------------10-------|

D:|----------------------------------------12----|

A:|----------------------------------------------|

E:|----------------------------------------------|

But where are those good, old-fashioned values on which we used to rely..



e:|-10-9-10-12-13-12-10-8---6-5-6-5-6-8--5-4-5-4-5-6-|

B:|--------------------------------------------------|

G:|--------------------------------------------------|

D:|--------------------------------------------------|

A:|--------------------------------------------------|

E:|--------------------------------------------------|

Lucky there’s a family guy. Lucky there’s a man who positively can do..



e:|-3-2-3-2-3-5---------10-|

B:|------------------10----|

G:|---------------10-------|

D:|------------------------|

A:|------------------------|

E:|------------------------|

All the things that make us laugh and cry..



e:|-8\--9\--10\--12\--13---|

B:|------------------------|

G:|------------------------|

D:|------------------------|

A:|------------------------|

E:|------------------------|

He’s a family guy.
Added by tabs-database.com and our distinguished partners
Get this song at amazon.com      Ebay     Ringtones Ringtones  


Learn to play: Songwriting, Piano, Harmonica, Guitar

Related Theme Music Tabs

Alton Towers tabs
Friends Theme tabs
Family Guy tabs
George Of The Jungle tabs
Shrek tabs
Inu-yasha tabs
Fraggle Rokc tabs
Cool Beach Song tabs
Pulp Fiction Theme tabs
Deliverance Dueling Banjos Theme tabs
Aladdin Theme tabs
Holloween Theme tabs
Good Picking Song For Beginners tabs
Mary Had Seven Lambs tabs
Greensleves tabs
Nokia Ring Tone tabs
Beavis And Butthead Theme tabs
Medieval Song tabs
Auld Lang Zyne tabs
Base Ball Theme tabs


Guitar Tabs









All tabs are property and copyright of their owners. All tabs provided for educational purposes only. Privacy Policy, DMCA