Theme Music

Eurotrip (scotty Doesnt Know) Tabs



More from Theme Music

Theme Music Tabs

tabs-database.com[http://www.tabs-database.com.com/]
Tabed By: Colin Levitch

Email:webmaster at tabs-database.com.com







*-palm mute

/-slide up



-------------------------------------------------

-------------------------------------------------

-------------------------------------------------

----55-44-55----55-44-55----55-44-55-77-55-44-55- x3

-------------------------33----------------------

-33----------55----------------------------------



------------------------------------

------------------------------------

-------------------5555555555555555-

-55555555-77777777-5555555555555555-

-55555555-77777777-3333333333333333-

-33333333-55555555------------------



--------------------------------------

--------------------------------------

-------------------55555555------5555-

-55555555-77777777-55555555-7777-5555-

-55555555-77777777-33333333-7777-3333-

-33333333-55555555----------5555------



------------------------------------

------------------------------------

-------------------55555555-5-5-7-5-

-55555555-77777777-55555555-5-5-7-5-

-55555555-77777777-33333333-3-3-5-3-

-33333333-55555555------------------

******** ******** ********



---------------------------------------

---------------------------------------

-------------------55555555-11-11-8/11-

-55555555-77777777-55555555-9--9--7/9--

-55555555-77777777-33333333-9--9--7/9--

-33333333-55555555---------------------

******** ******** ********



------------------------------------

------------------------------------

-------------------5555555555555555-

-55555555-77777777-5555555555555555-

-55555555-77777777-3333333333333333-

-33333333-55555555------------------



--------------------------------------

--------------------------------------

-------------------55555555------5555-

-55555555-77777777-55555555-7777-5555-

-55555555-77777777-33333333-7777-3333-

-33333333-55555555----------5555------



------------------------------------

------------------------------------

-------------------55555555-5-5-7-5-

-55555555-77777777-55555555-5-5-7-5-

-55555555-77777777-33333333-3-3-5-3-

-33333333-55555555------------------

******** ******** ********



---------------------------------------

---------------------------------------

-------------------55555555-11-11-8/11-

-55555555-77777777-55555555-9--9--7/9--

-55555555-77777777-33333333-9--9--7/9--

-33333333-55555555---------------------

******** ******** ********



------------------------------------

------------------------------------

-------------------55555555-5-5-7-5-

-55555555-77777777-55555555-5-5-7-5-

-55555555-77777777-33333333-3-3-5-3-

-33333333-55555555------------------

******** ******** ********



---------------------------------------

---------------------------------------

-------------------55555555-11-11-8/11-

-55555555-77777777-55555555-9--9--7/9--

-55555555-77777777-33333333-9--9--7/9--

-33333333-55555555---------------------

******** ******** ********



------------------------------------

------------------------------------

-------------------5555555555555555-

-55555555-77777777-5555555555555555-

-55555555-77777777-3333333333333333-

-33333333-55555555------------------



--------------------------------------

--------------------------------------

-------------------55555555------5555-

-55555555-77777777-55555555-7777-5555-

-55555555-77777777-33333333-7777-3333-

-33333333-55555555----------5555------



------------------------------------

------------------------------------

-------------------5555555555555555-

-55555555-77777777-5555555555555555-

-55555555-77777777-3333333333333333-

-33333333-55555555------------------



--------------------------------------

--------------------------------------

-------------------55555555------5555-

-55555555-77777777-55555555-7777-5555-

-55555555-77777777-33333333-7777-3333-

-33333333-55555555----------5555------



(break)



-------------------------------------------------

-------------------------------------------------

-------------------------------------------------

----55-44-55----55-44-55----55-44-55-77-55-44-55- x2

-------------------------33----------------------

-33----------55----------------------------------



------------------------------------

------------------------------------

-------------------5555555555555555-

-55555555-77777777-5555555555555555-

-55555555-77777777-3333333333333333-

-33333333-55555555------------------



--------------------------------------

--------------------------------------

-------------------55555555------5555-

-55555555-77777777-55555555-7777-5555-

-55555555-77777777-33333333-7777-3333-

-33333333-55555555----------5555------



------------------------------------

------------------------------------

-------------------5555555555555555-

-55555555-77777777-5555555555555555- x3

-55555555-77777777-3333333333333333-

-33333333-55555555------------------



-----------------------------------------

-----------------------------------------

-------------------55555555------5555--5-

-55555555-77777777-55555555-7777-5555--5-

-55555555-77777777-33333333-7777-3333--3-

-33333333-55555555----------5555--------



Good tab? Please rate!!!
Added by tabs-database.com and our distinguished partners
Get this song at amazon.com      Ebay     Ringtones Ringtones  


Learn to play: Songwriting, Piano, Harmonica, Guitar

Related Theme Music Tabs

Popular Song Riffs tabs
Scooby-doo Theme tabs
Ned's Declassified School Survival Guide Theme tabs
Halo Riff tabs
Smelly Cat tabs
Boy Meets World Theme Song tabs
Batman Old School tabs
Good Picking Song For Beginers tabs
Halo 2 Theme Song tabs
Charlie Brown Song tabs
London Bridge tabs
Oompa Loompa tabs
Men Behaving Badly tabs
Carol Of The Bells tabs
Frere Jacques tabs
Harry Potter - Hedwigs Theme tabs
Eastenders Theme tabs
Dueling Banjo tabs
Base Ball Theme tabs
Mary Had Seven Lambs tabs


Guitar Tabs









All tabs are property and copyright of their owners. All tabs provided for educational purposes only. Privacy Policy, DMCA