Theme Music

Elise Tabs



More from Theme Music

Theme Music Tabs

tabs-database.com[http://www.tabs-database.com.com/]
I have always liked playing this song on the piano and the keyboard. It sounds pretty wicked on

the guitar too ;).







Elise

Theme Music - Elise





----------

| Part One |

----------



E|-12--11--||-12--11--12--------------|-------------------------|

B|---------||-------------12--15--13--|-------------------------|

G|--------o||o------------------------|-14------------------14--|

D|--------o||o------------------------|-----------------14------|

A|---------||-------------------------|-0-------12--15----------|

E|---------||-------------------------|-----12------------------|







E|-------------------------|-----------------12--11--|

B|-12------------------12--|-13----------------------|

D|-----------------13------|-------------------------|

G|-------------14----------|-------------14----------|

A|---------11--------------|-0-------12--------------|

E|-0---12------------------|-----12------------------|







E|-12--11--12--------------|-------------------------|

B|-------------12--15--13--|-------------------------|

G|-------------------------|-14------------------14--|

D|-------------------------|-----------------14------|

A|-------------------------|-0-------12--15----------|

E|-------------------------|-----12------------------|







E|-------------------------|------------------12--11--|

B|-12--------------13--12--|--------------------------|

D|-------------------------|-14-----------------------|

G|-------------14----------|--------------------------|

A|---------11--------------|-0-------12---------------|

E|-0---12------------------|-----12-------------------|







E|-12--11--12--------------|-------------------------|

B|-------------12--15--13--|-------------------------|

D|-------------------------|-14------------------14--|

G|-------------------------|-----------------14------|

A|-------------------------|-0-------12--15----------|

E|-------------------------|-----12------------------|







E|-------------------------|-----------------12--11--|

B|-12------------------12--|-13----------------------|

D|-----------------13------|-------------------------|

G|-------------14----------|-------------14----------|

A|---------11--------------|-0-------12--------------|

E|-0---12------------------|-----12------------------|







E|-12--11--12--------------|-------------------------|

B|-------------12--15--13--|-------------------------|

D|-------------------------|-14------------------14--|

G|-------------------------|-----------------14------|

A|-------------------------|-0-------12--15----------|

E|-------------------------|-----12------------------|







E|-------------------------|-------------------------||

B|-12--------------13--12--|-------------12--13--15--||

D|-------------------------|-14---------------------o||

G|-------------14----------|------------------------o||

A|---------11--------------|-0-------12--------------||

E|-0---12------------------|-----12------------------||



----------

| Part Two |

----------



E|-12--------------13--12--|-10--------------12------|

B|-------------------------|--------(0)----------15--|

D|o------------12----------|----(0)------------------|

G|o--------10--------------|-------------15----------|

A|-----10------------------|-----10--14--------------|

E|-8-----------------------|-3-----------------------|







E|-------------------------|-----------------12------|

B|-13--------------15--13--|-12----------------------|

D|-------------------------|-------------------------|

G|-------------14----------|---------14--14----------|

A|-0-------12--------------|-------------------------|

E|-----12------------------|-0---12--------------0---|







E|-----12--14----------10--|-12----------11--12--11--|

B|-------------------------|-------------------------|

D|-------------------------|------------------------o|

G|-------------------------|------------------------o|

A|-------------------------|-------------------------|

E|-12----------11--12------|-----11--12--------------|





If there happens to be any corrections, which is possible, then correct my

corrections if you wish. Enjoy!
Added by tabs-database.com and our distinguished partners
Get this song at amazon.com      Ebay     Ringtones Ringtones  


Learn to play: Songwriting, Piano, Harmonica, Guitar

Related Theme Music Tabs

Avalanche Valley Theme tabs
Cons Theme tabs
Chinese Theme tabs
Mario Brothers Theme tabs
We Wish You A Merry Christmas tabs
Pink Panther Theme tabs
Shrek tabs
O Canada tabs
Coca-cola Theme tabs
Clown Music tabs
Mortal Kombat Theme tabs
King Of The Hill Theme Song tabs
Sailors Hornpipe tabs
Buffy Acoustic Theme tabs
Schindlers List tabs
3 Blind Mice tabs
Mash tabs
Nintendo Super Mario tabs
Olympic Fanfare tabs
Conan The Barbarian tabs


Guitar Tabs









All tabs are property and copyright of their owners. All tabs provided for educational purposes only. Privacy Policy, DMCA