Theme Music

Cons Theme Tabs



More from Theme Music

Theme Music Tabs

tabs-database.com[http://www.tabs-database.com.com/]
Tuning-Standard EADGBE



This song was made by a friend of mine. You should have two guitars playing this riff at other tunings as well. Its alot of fun, so go with

it.

Mad props to my friend Connie.

E-----------------------------------------------------------------

B--3-3--4---3-3--4--3-3--4--6--4--3-------------------------

G-----------------------------------------------------------------

D-----------------------------------------------------------------

A-----------------------------------------------------------------

E-----------------------------------------------------------------





E-----------------------------------------------------------------

B--3-3--4---3-3--4--3-3--4--6--4--3-------------------------

G-----------------------------------------------------------------

D-----------------------------------------------------------------

A-----------------------------------------------------------------

E-----------------------------------------------------------------





E-----------------------------------------------------------------

B-----------------------------------------------------------------

G--7-7--8--7-7--8--7-7--7-7-7------------------------------

D--7-7--8--7-7--8--7-7--7-7-7------------------------------

A--5-5--6--5-5--6--5-5--6-5-5-------------------------------

E-----------------------------------------------------------------

Repeat

Added by tabs-database.com and our distinguished partners
Get this song at amazon.com      Ebay     Ringtones Ringtones  


Learn to play: Songwriting, Piano, Harmonica, Guitar

Related Theme Music Tabs

London Bridge Is Falling Down tabs
Medieval Song tabs
Cialis Comercail tabs
Auld Lang Syne tabs
3rd Rock From The Sun Theme tabs
Dominos Theme tabs
Egyptian Riff tabs
Dodge Commercial Theme tabs
We Wish You A Merry Christmas tabs
Song From Peter Gunn tabs
Head Bangers Ball Theme tabs
Boogie tabs
Peter Gun tabs
Napoleon Dynamite tabs
Philippine National Anthem tabs
More Than - Insurance tabs
Futurama tabs
Twinkel Twinkle tabs
Batman tabs
Misc Riff tabs


Guitar Tabs









All tabs are property and copyright of their owners. All tabs provided for educational purposes only. Privacy Policy, DMCA