Theme Music

Cialis Comercail Tabs



More from Theme Music

Theme Music Tabs

tabs-database.com[http://www.tabs-database.com.com/]
All right first tab here bare with me

standard tuning

bluesy feel nice and slow





riff one

[----------------

[---------/8\6---

[---------/7\5--- a few times

[---------/8\6---

[----------------

[---6--6---------



riff two

[---------/8\6---

[---------/8\6---

[---------/8\6--- a few times

[----------------

[---6--6---------

[----------------





riff one a few more times



[--------/10\8---

[--------/10\8---

[--------/10\8---

[----------------

[---8--8---------

[----------------



riff two



riff one



then a few strumming chords



[---------

[----6----

[----8---- 8 times

[----7----

[----8----

[---------



ding dang dere it be

Lucas
Added by tabs-database.com and our distinguished partners
Get this song at amazon.com      Ebay     Ringtones Ringtones  


Learn to play: Songwriting, Piano, Harmonica, Guitar

Related Theme Music Tabs

Cool Beach Song tabs
Charmed Theme tabs
Ode To Joy tabs
Rise tabs
Twinkel Twinkle tabs
Adams Family tabs
Row Row Row Ur Boat tabs
Heavy Metal Mary Had Little Lamb tabs
Elise tabs
Red Vs Blue Theme tabs
Hun Cunz Buz tabs
Buffy Acoustic Theme tabs
Auld Lang Syne tabs
Philippine National Anthem tabs
Seseme Street tabs
Beauty And The Beast tabs
Clown Music tabs
Harry Potter Theme Song tabs
Chris Benoit Entrance Music tabs
Desperado tabs


Guitar Tabs









All tabs are property and copyright of their owners. All tabs provided for educational purposes only. Privacy Policy, DMCA