Theme Music

Charmed Theme Tabs



More from Theme Music

Theme Music Tabs

tabs-database.com[http://www.tabs-database.com.com/]


ok this is my first tab so i hope it all goes well.



e|------0-3----------0-3------------|

b|--3-3----------3-3----------------|

g|----------------------------------|

d|----------------------------------|

a|----------------------------------|

e|----------------------------------|



e|--7-7-8-7-5-3-3-5-7-3-------------| Play this one 3 times.

b|----------------------3-----------|

g|----------------------------------|

d|----------------------------------|

a|----------------------------------|

e|----------------------------------|





e|-7-7-5-5-5-4-0--------------------|

b|----------------------------------|

g|----------------------------------|

d|----------------------------------|

a|----------------------------------|

e|----------------------------------|
Added by tabs-database.com and our distinguished partners
Get this song at amazon.com      Ebay     Ringtones Ringtones  


Learn to play: Songwriting, Piano, Harmonica, Guitar

Related Theme Music Tabs

Italian Melody tabs
Mash tabs
Kakariko Village tabs
Old Mcdonald tabs
Nokia Ringtone tabs
Bell Chime tabs
Deliverance Dueling Banjos Theme tabs
Oompa Loompa Song tabs
Dueling Banjos tabs
Freddy Vs Jason tabs
Meow Mix tabs
Can-Can tabs
Arabian Tune tabs
Buffy Acoustic Theme tabs
O Canada tabs
Friends Theme Tune tabs
Barney Theme tabs
Crank Yankers Theme tabs
Mary Had Seven Lambs tabs
Father Ted tabs


Guitar Tabs









All tabs are property and copyright of their owners. All tabs provided for educational purposes only. Privacy Policy, DMCA