Theme Music

Buffy The Vampire Slayer Theme Tabs



More from Theme Music

Theme Music Tabs

tabs-database.com[http://www.tabs-database.com.com/]
http://www.mxtabs.net

band:theme music

song:buffy the vampire slayer

submiter:webmaster at tabs-database.com.com



so if ur like me and u like buffy the vampire siayer

your think that the music is cool and it is so hears the tab



E|-------------------------|

B|-------------------------|

G|-------0-1---------------|

D|-3--------------1--------|

A|-------------------------|

E|-------------------------|



//SCREECH//

E|-----------------------------------------------------|

B|-----------------------------------------------------|

G|-------0--1---------------------0--------------------| x2

D|-3-----------1---------1-----3-----1-----------------|

A|-----------------------------------------------------|

E|-----------------------------------------------------|



E|-------------------------------------------|

B|-------1h2---------------------------------|

G|-3----------3--1---------------1--0--------|

D|-------------------------------------------|

A|-------------------------------------------|

E|-------------------------------------------|



//SCREECH//

E|----------------1-----------------1---------------------|

B|-1-1-1-1-1-1-4-----1-1-1-1-1-1-4-----------------1--2---|

G|------------------------------------3-3-3-3-3-3---------|

D|--------------------------------------------------------|

A|--------------------------------------------------------|

E|--------------------------------------------------------|



E|-------------------------------------------------|

B|------------------------0--0--0--0--0--0--0--0---|

G|--3--3--3--3--3--3--3-3--------------------------|

D|-------------------------------------------------|

A|-------------------------------------------------|

E|-------------------------------------------------|



E|-------------------------------|

B|---1--------1------------------|

G|-------------------------------|

D|-------------------------------|

A|-------------------------------|

E|-----------------------1~~~~~--|



play with havy distoreshon it should sound right
Added by tabs-database.com and our distinguished partners
Get this song at amazon.com      Ebay     Ringtones Ringtones  


Learn to play: Songwriting, Piano, Harmonica, Guitar

Related Theme Music Tabs

Blues Shuffle Theme tabs
Fraggle Rokc tabs
Inu-yasha tabs
Dawn Of The Dead - Little Mall Jingle tabs
Power Puff Girls Theme tabs
Courage The Cowardly Dog Theme tabs
Batman Theme tabs
Beyblade Theme tabs
Away In A Manger tabs
Origional Batman tabs
Greensleves tabs
Dsb Harry tabs
National Antheme tabs
The Cockroach Song tabs
Pulp Fiction Theme tabs
Cool Depressing Riff tabs
Mario Theme Song tabs
Popular Song Riffs tabs
Mortal Kombat Theme tabs
O Canada tabs


Guitar Tabs









All tabs are property and copyright of their owners. All tabs provided for educational purposes only. Privacy Policy, DMCA