Theme Music

Buffy Acoustic Theme Tabs



More from Theme Music

Theme Music Tabs

tabs-database.com[http://www.tabs-database.com.com/]
#----------------------------------PLEASE NOTE----------------------------------#

# This file is the author's own work and represents their interpretation of the #

# song. You may only use this file for private study, scholarship, or research. #

#-------------------------------------------------------------------------------#

=================================================================================

Artist: Nerf Herder (original rock version)

Song: Buffy - The Vampire Slayer (acoustic theme)

Tab by: Goran (webmaster at tabs-database.com.com)

Tuning: Normal

GMT: 22:46 (Bjelovar, Croatia)

Date: 11th October 2004

Wether: Cloudy

Temp.: 10 °C

=================================================================================



Buffy - The vampire slayer theme (acoustic)





Em G (barre)

|-0-----0-----0---|-------2-----3---|-----------------|-----------------|

|---0-----0-----0-|-----0---0-----0-|-3-----3-----3---|-------3-----3---|

|-----0-----0-----|---0-------0-----|---4-----4-----4-|-----4---4-----4-|

|-----------------|-----------------|-----5-----5-----|---5-------5-----|

|-----------------|-----------------|-----------------|-----------------|

|-0---------------|-0---------------|-3---------------|-3---------------|



Bm D

|-----------------|-------0-----2---|-------2---------|-------2---------|

|-3-----3-----3---|---------3-----3-|-3---3---3---3---|-----3---3---3---|

|---4-----4-----4-|-----4-----4-----|---2-------2---2-|---2-------2---2-|

|-----4-----4-----|---4-------------|-0---------------|-0---------------|

|-2---------------|-2---------------|-----------------|-----------------|

|-----------------|-----------------|-----------------|-----------------|



Em G (barre)

|-0-----0-----0---|-------2-----3---|-----------------|-----------------|

|---0-----0-----0-|-----0---0-----0-|-3-----3-----3---|-------3-----3---|

|-----0-----0-----|---0-------0-----|---4-----4-----4-|-----4---4-----4-|

|-----------------|-----------------|-----5-----5-----|---5-------5-----|

|-----------------|-----------------|-----------------|-----------------|

|-0---------------|-0---------------|-3---------------|-3---------------|



Bm D

|-----------------|-------0-----2---|-------2---------|-------2---------|

|-3-----3-----3---|---------3-----3-|-3---3---3---3---|-----3---3---3---|

|---4-----4-----4-|-----4-----4-----|---2-------2---2-|---2-------2---2-|

|-----4-----4-----|---4-------------|-0---------------|-0---------------|

|-2---------------|-2---------------|-----------------|-----------------|

|-----------------|-----------------|-----------------|-----------------|



A (barre) Em

|-5-----5-----5---|-------5h7---5---|-3-----3-----3---|-------3-----3---|

|---5-----5-----5-|-----5-----------|---0-----0-----0-|-----0---0-----0-|

|-----6-----6-----|---6-------6---6-|-----0-----0-----|---0-------0-----|

|-----------------|-----------------|-----------------|-----------------|

|-----------------|-----------------|-----------------|-----------------|

|-5---------------|-5---------------|-0---------------|-0---------------|



Bm Em

|-2-----2-----2---|-------2-----5---|-7-----7-----7---|------10----12---|

|---3-----3-----3-|-----3---3-----3-|---0-----0-----0-|-----0---0-----0-|

|-----4-----4-----|---4-------4-----|-----0-----0-----|---0-------0-----|

|-----------------|-----------------|-----------------|-----------------|

|-2---------------|-2---------------|-----------------|-----------------|

|-----------------|-----------------|-0---------------|-0---------------|



G Bm (barre on 7th fret)

|-7-----7-----7---|-------10---12---|-----------------|-------7----10---|

|---0-----0-----0-|-----0---0-----0-|-10---10----10---|---------7-----7-|

|-----0-----0-----|---0-------0-----|---7-----7-----7-|-----7-----7-----|

|-----------------|-----------------|-----9-----9-----|---9-------------|

|-10--------------|-10--------------|-----------------|-----------------|

|-----------------|-----------------|-7---------------|-7---------------|



D (barre) D# (barre)

|-5-----5-----5---|-------5-----5---|-6-----6-----6---|-------6-----6---|

|---7-----7-----7-|-----7---7-----7-|---8-----8-----8-|-----8---8-----8-|

|-----7-----7-----|---7-------7-----|-----8-----8-----|---8-------8-----|

|-----------------|-----------------|-----------------|-----------------|

|-5---------------|-5---------------|-6---------------|-6---------------|

|-----------------|-----------------|-----------------|-----------------|



Em

|-0-----0-----0---|-0-----0-----0---|-0-----0-----0---|-0---------------|

|---0-----0-----0-|---0-----0-----0-|---0-----0-----0-|-----------------|

|-----0-----0-----|-----0-----0-----|-----0-----0-----|-----------------|

|-----------------|-----------------|-----------------|-----------------|

|-----------------|-----------------|-----------------|-----------------|

|-0---------------|-0---------------|-0---------------|-0---------------|





Well, that's it. I hope you like it..
Added by tabs-database.com and our distinguished partners
Get this song at amazon.com      Ebay     Ringtones Ringtones  


Learn to play: Songwriting, Piano, Harmonica, Guitar

Related Theme Music Tabs

Twilight Zone tabs
Happy Birthday With A Rock Twist tabs
Pulp Fiction tabs
Blues Riff tabs
Cialis Comercail tabs
Exorcist Theme tabs
London Bridge tabs
London Bridge Is Falling Down tabs
Row Row Row Your Boat tabs
Ode To Joy(whole Song) tabs
Oompa Loompa tabs
Auld Lang Syne tabs
Eye Of The Tiger tabs
Beauty And The Beast tabs
Cool Depressing Riff tabs
Hockey Night In Canada Theme tabs
Andy Griffith Show tabs
Men Behaving Badly tabs
Silent Night tabs
Dueling Banjo tabs


Guitar Tabs









All tabs are property and copyright of their owners. All tabs provided for educational purposes only. Privacy Policy, DMCA