Theme Music

Boosters Tower Tabs



More from Theme Music

Theme Music Tabs

tabs-database.com[http://www.tabs-database.com.com/]
Booster\'s Tower



Tabbed by: jordex (webmaster at tabs-database.com.com)



Standard Tuning



|---------------------------|

|---------------------------|

|----------0----------------|

|----2--0----2---2-----0----|

|-0-----------------3-------|

|-------------------------3-|







Now Matched to djp\'s Booster Tarantino

-max reeverb

|---------------------------|

|---------------------------|

|----------4----------------|

|----6--4----6---6-----4----|

|-4-----------------7-------|

|-------------------------7-|



Main

|---------------------------|

|---------------------------|

|---------------------------|

|----5--3----------5--3-----|

|-3-------------3-----------|

|---------------------------|



|---------------------------|

|---------------------------|

|---------------------------|

|-5--5-3----0---------------|

|--------3------------------|

|---------------------------|
Added by tabs-database.com and our distinguished partners
Get this song at amazon.com      Ebay     Ringtones Ringtones  


Learn to play: Songwriting, Piano, Harmonica, Guitar

Related Theme Music Tabs

Wolf Whistle tabs
Oompa Loompa tabs
Skip To My Lou tabs
Mc Gyver tabs
Shrek tabs
Inu-yasha tabs
Pulp Fiction Theme tabs
Courage The Cowardly Dog End Theme tabs
Bell Chime tabs
Row Row Row Your Boat tabs
Sesame Street tabs
Medieval Song tabs
Mario Brothers Theme tabs
Twinkel Twinkle tabs
Happy Happy Joy Joy tabs
Cool Beach Song tabs
Oompa Loompa Song tabs
Megaman Theme tabs
Clown Music tabs
Yankee Doodle tabs


Guitar Tabs









All tabs are property and copyright of their owners. All tabs provided for educational purposes only. Privacy Policy, DMCA