Theme Music

Blues Shuffle Theme Tabs



More from Theme Music

Theme Music Tabs

tabs-database.com[http://www.tabs-database.com.com/]
Perfect tab! I think its right on



e-----------------------------------------------------------------------------------

b-----------------------------------------------------------------------------------

g-----------------------------------------------------------------------------------

d-----------------------------------0-2-3-2-0-2-3-2--------------------------0-2-3-2

a---0-2-3-2-0-2-3-2-0-2-3-2-0-2-3-2-----------------0-2-3-2-0-2-3-2-----------------

e--------------------------------------------------------------------0-2-3-2--------



e-----------------------------------------------------------------------------------

b--0-2-3-2--0-0-0-0-0---------------------------------------------------------------

g-----------------------------------------------------------------------------------

d----------------------TIMES 2------------------------------------------------------

a-----------------------------------------------------------------------------------

e-----------------------------------------------------------------------------------



1000000% correct! pleze rate it!

Added by tabs-database.com and our distinguished partners
Get this song at amazon.com      Ebay     Ringtones Ringtones  


Learn to play: Songwriting, Piano, Harmonica, Guitar

Related Theme Music Tabs

Cons Theme tabs
Popular Song Riffs tabs
Harry Potter Title Theme tabs
Boogie tabs
Elise tabs
Hedwigs Theme tabs
Carol Of The Bells tabs
Good Picking Song For Beginners tabs
Courage The Cowardly Dog Theme tabs
Arabian Theme tabs
3 Blind Mice tabs
Away In A Manger tabs
Amazing Grace tabs
Halloween Theme tabs
Snake Charming Song tabs
Arabian Tune tabs
Harry Potter-Nimbus 2 tabs
Conan The Barbarian tabs
Aladdin Theme tabs
Futurama tabs


Guitar Tabs









All tabs are property and copyright of their owners. All tabs provided for educational purposes only. Privacy Policy, DMCA