Theme Music

Base Ball Theme Tabs



More from Theme Music

Theme Music Tabs

tabs-database.com[http://www.tabs-database.com.com/]
Tabbed by: Jesse Hardin



-----------------------

1---------0--1-------0-

---0--2--------0--2----

----------------------- This actually sounds like the real thing so please rate it

-----------------------

-----------------------



-----------------------

1---------0--1-------0-

---0--2--------0--2----

-----------------------

-----------------------

-----------------------



-----------------------

-----------------------

---------0-------0-----

-------2------2--------

-----3-----------------

---3-------------------
Added by tabs-database.com and our distinguished partners
Get this song at amazon.com      Ebay     Ringtones Ringtones  


Learn to play: Songwriting, Piano, Harmonica, Guitar

Related Theme Music Tabs

Snake Charming Song tabs
Bret Hart Wwf tabs
Elise tabs
You Are My Sunshine tabs
La Pantera Rosa Theme tabs
Drunk Sailor tabs
007 Theme tabs
Happy Birthday tabs
Deliverance Dueling Banjos Theme tabs
Peter Gun tabs
The National Anthem tabs
Aladdin tabs
Good Picking Song For Beginers tabs
F Zero X tabs
Auld Lang Zyne tabs
Popeye Theme tabs
Gladiator Song tabs
Beverly Hills Cop Riff tabs
Rocky Sountrack tabs
Fur Elise tabs


Guitar Tabs









All tabs are property and copyright of their owners. All tabs provided for educational purposes only. Privacy Policy, DMCA