Theme Music

Back To The Future Tabs



More from Theme Music

Theme Music Tabs

tabs-database.com[http://www.tabs-database.com.com/]
e|----------------------------------------

b|----------------------------------------

g|-1---0---1-3-1-----0---1-3-1------0-1-3-

d|---1-----------3-------------3----------

a|-----------------4-------------4--------

e|----------------------------------------



e|----------------------------------------

b|-1---0---1-3-1-----0--1-3-1-----0-1-3---

g|---0-----------2------------2-----------

d|-----------------3------------3---------

a|----------------------------------------

e|----------------------------------------





e|-1--0---0---------1-3--1--0---0---------

b|------3---3-1-3-------------3---3-1-3---

g|----------------------------------------

d|----------------------------------------

a|----------------------------------------

e|----------------------------------------



This is one of the greatest movies of all time.
Added by tabs-database.com and our distinguished partners
Get this song at amazon.com      Ebay     Ringtones Ringtones  


Learn to play: Songwriting, Piano, Harmonica, Guitar

Related Theme Music Tabs

Black Books Theme tabs
In The Jungle tabs
Morrowind 3 Theme tabs
Beauty And The Beast tabs
Ode To Joy(whole Song) tabs
Elise tabs
Flinstones Theme tabs
Pikmin Theme tabs
Meow Mix tabs
Amhrann Na Bhfiann tabs
Popeye Theme tabs
Oompa Lumpa Song tabs
Jingle Bells tabs
Conan The Barbarian tabs
Opening Theme To Terminator tabs
Coca-cola Theme tabs
Men Behaving Badly tabs
Doom 2 Theme tabs
Popular Song Riffs tabs
Beyblade Theme tabs


Guitar Tabs









All tabs are property and copyright of their owners. All tabs provided for educational purposes only. Privacy Policy, DMCA