Theme Music

Away In A Manger Tabs



More from Theme Music

Theme Music Tabs

tabs-database.com[http://www.tabs-database.com.com/]
hi this is my first ever tab and i really hope it is ok!!!! :):):):):):)



e/-------------------------------------------------------

b/-------------------------------------------------------

g/-------------------------------------------------------

d/-1-1-3-5-1-1-5-7-9-9-11-7-3-5-7-7-9-5-5--1-5-3---------

e/1----------------------------------------------3-6-5---



then do it all over again, but it changes a little bit at the end



e/-------------------------------------------------------

b/-------------------------------------------------------

g/-------------------------------------------------------

d/-1-1-3-5-1-1-5-7-9-9-11-7-3-5-7-7-9-5-5--1-5-3---------

e/1----------------------------------------------3-5-6---



yay i really hope you like this, this is one of my favorite xmas carols, so enjoy !!!!!
Added by tabs-database.com and our distinguished partners
Get this song at amazon.com      Ebay     Ringtones Ringtones  


Learn to play: Songwriting, Piano, Harmonica, Guitar

Related Theme Music Tabs

Lost And Delirious tabs
National Anthem tabs
Alton Towers tabs
Mxc Theme Song tabs
Heavy Metal Jingle Bells tabs
Popeye The Sailor Man tabs
Rocky Theme tabs
Earthbound Character Naming tabs
Medieval Song tabs
Batman Theme tabs
Charlie Brown Song tabs
Italian Melody tabs
Amhrann Na Bhfiann tabs
Old Dragon Ball Z Theme tabs
Oompa Lumpa tabs
Barney Theme tabs
Phantasm tabs
Pulp Fiction Theme tabs
Base Ball Theme tabs
007 Theme tabs


Guitar Tabs









All tabs are property and copyright of their owners. All tabs provided for educational purposes only. Privacy Policy, DMCA