Theme Music

Arabian Tune Tabs



More from Theme Music

Theme Music Tabs

tabs-database.com[http://www.tabs-database.com.com/]
HERE IT IS FOR THE FIRST TIME EVER!!

THE FANS HAVE BEEN ASKING FOR IT, AND NOW HERE IT IS!!!!:

***********ARABIAN TUNE******************



E---------------------------------------------------

B---------------------------------------------------

G---------------------------------------------------

D------------------------------2--------------------

A-----2--3--2-------------2--3----2--3--------------

E--5-----------5-------5------------------5---------X 2



IT SOUNDS A LITTLE WIERD LIKE THAT, BUT IT SOUNDS IN MY OPINION BETTER THIS WAY: (with hammer)



E-------------------------------------------------

B-------------------------------------------------

G-------------------------------------------------

D----------------------------2--------------------

A---2--3--2-------------2-3-----2h3---------------

E-5----------5--------5--------------5-----------X2



PLEASE RATE IT!

Added by tabs-database.com and our distinguished partners
Get this song at amazon.com      Ebay     Ringtones Ringtones  


Learn to play: Songwriting, Piano, Harmonica, Guitar

Related Theme Music Tabs

Sailors Hornpipe tabs
Cialis Comercail tabs
Simpsons Theme tabs
Phoenix Nights tabs
Batman Old School tabs
C Blues Pentonic Scale tabs
Heavy Metal Jingle Bells tabs
Twinkel Twinkel Little Star tabs
Dueling Banjos tabs
Harry Potter Title Theme tabs
Old Man Six Flags tabs
Nokia Ringtone tabs
Team Fresh Theme tabs
Captain Pugwash Theme tabs
Aladdin Theme tabs
Italian Melody tabs
Fa La La La La tabs
Auld Lang Zyne tabs
Dinnerladies tabs
Harry Potter-nimbus 2000 tabs


Guitar Tabs









All tabs are property and copyright of their owners. All tabs provided for educational purposes only. Privacy Policy, DMCA