Theme Music

Amhrann Na Bhfiann Tabs



More from Theme Music

Theme Music Tabs

tabs-database.com[http://www.tabs-database.com.com/]
AMHRANN NA BHFIANN



I noticed that there were numerous national anthems tabbed

But none for the this so here you go! Its not in the right

Timing but I’m definite these are the right notes. Have fun!



E:------6------------------------------------6----------

B:--7-9--7----------------------7-6---6-7-9---9---------

G:-----------6--6-8-8---8-6-8-6-----8------------8-10~--

D:--------------------9---------------------------------

A:------------------------------------------------------

E:------------------------------------------------------





E:------6-----------------------------------------

B:--7-9---7---------------------------------------

G:----------6--6-8-8---8-6-8-6-10-10-1010-8-6-6~--

D:-------------------9----------------------------

A:------------------------------------------------

E:------------------------------------------------





E:---------------------------------------------

B:---------------------------------------------

G:--6-------------6-8-6-11-10-8-10-8-6---------

D:----9-8-9-6-8-9----------------------9-6~----

A:---------------------------------------------

E:---------------------------------------------





E:-----------------------------------6------------

B:-------------------7-9-11--7-----7---9-77~~-----

G:--6-------6-6-8-10-----------8-6----------------

D:----8---8---------------------------------------

A:------9-----------------------------------------

E:------------------------------------------------



Tabbed by looney
Added by tabs-database.com and our distinguished partners
Get this song at amazon.com      Ebay     Ringtones Ringtones  


Learn to play: Songwriting, Piano, Harmonica, Guitar

Related Theme Music Tabs

A Whole New World tabs
Popular Song Riffs tabs
Mary Had A Little Lamb tabs
Opening Theme To Terminator tabs
Power Rangers Theme Song tabs
Schindlers List tabs
Batman Old School tabs
Aladdin Theme tabs
Chris Benoit Entrance Music tabs
Yankee Doodle tabs
Elmo Song tabs
Can-Can tabs
You Are My Sunshine tabs
Smelly Cat tabs
Pink Panther Theme tabs
Chinese Theme Song tabs
Auld Lang Zyne tabs
Boosters Tower tabs
Frere Jacques tabs
We Wish You A Merry Christmas tabs


Guitar Tabs









All tabs are property and copyright of their owners. All tabs provided for educational purposes only. Privacy Policy, DMCA